E-Chords
Gerardo Ortiz

Jardín Olvidado(Chords)

Gerardo Ortiz

roll up this ad to continue

Key: G
Intro: G,F#m,Em,C,D7,G x2 



G               F#m         Em 
las flores que te llevaba se secaron 
             C            D7             G 
ya se marchitaron igual que tu amor por mi, 
                 F#m        Em 
todo el jardin que habia sembrado, lo e dejado 
       C         D7              G 
abandonado como tu lo hiciste a mi 



Bm Em Bm D7 mira nadamas que linda estas, pero lastima que ya te vas Em A Em mas no creas que te voy a rogar tu jardin yo no A C D7 G B vuelvo a pisar ni me vuelvo a enamorar a enamorar
G F#m Em si algun dia tu amor por mi renace anque pase lo C D7 G que pase tu traicion voy a olvidar y el jardin F#m Em C que habiamos sembrado con amor y con cuidado otra D7 G vez a de florear coro.
    1.--------------------------------------------------------      
    2.-3-3---3-3-3-5-3----------------------------------------      
    3.-----------------5-4-4---4-4-4-5-4-2-------------2-2/4--      
    4.------------------------------------5-5--5-5-4-5--4-----      
    5.--------------------------------------------------------      
- 


    1.-----------------------------------------------------------      
    2.-3-3---3-3-3-5-3-------------------------------------------      
    3.-----------------5-4-4--4-4-4-5-4-2-------------2--0-------      
    4.-----------------------------------5-5---5-5-4-5-4---------      
    5.-----------------------------------------------------------      
    6.-----------------------------------------------------------     
share this page

See Also: