E-Chords
G.E.M.

I Feel You Tonight(Chords)

G.E.M.

roll up this ad to continue

Key: A
A9               C9 
Cause I feel you tonight 
A9               C9 
Cause I feel you tonight 
F                G 
Cause I feel you, feel you 
F              G 
Tonight I feel you 
A9              C9 
Cause I feel you tonight 
A9              C9 
Cause I feel you tonight 
A9               Em 
Cause I feel you, feel you Tonight 
A9                C9 
Cause I feel you tonight 
C              G                    C9 
Baby you don't know what I feel for you 
C              G                    C9 
Maybe because I didn't know until tonight 
C            G                 Dm 
In my heart I feel I need you so 
C              G                        F# 
Please forgive me if I never show you my love 
C              G                    C9 
Baby you don't know what I feel inside 
C              G                    C9 
Sure you didn't know it would be tonight 
C              G                    C9 
I give you all my loving and you know for sure 
C              G               C9       F# 
Please forgive me if I never show you my love 
Dm 
I feel you baby 
A                     Dm 
I feel you, I feel you baby 
A             C 
You don't want me         
A              C 
You don't want me 
Dm        C              Bb 
You don't need me in your life 
A9 
I feel you baby 
 
Solo:
 
e|-------10---------------------|---------10-----------| 
B|----------10--13/15--13h15p13-|------------10--13/15-| 
G|-12b14------------------------|-12b14----------------| 
D|------------------------------|----------------------| 
A|------------------------------|----------------------| 
E|------------------------------|----------------------| 

e|-----10-12b13b12-10--------|---------------------------------------------| 
B|--13-----------------13----|---------------------------------------------| 
G|------------------------10-|-9h10p9-------12b14-14-14-14b12--10--12--10--| 
D|---------------------------|--------10-10--------------------------------| 
A|---------------------------|---------------------------------------------| 
E|---------------------------|---------------------------------------------| 
 
A9 C9 Cause I feel you tonight A9 C9 Cause I feel you tonight F G Cause I feel you, feel you F G Tonight I feel you A9 C9 Cause I feel you tonight A9 C9 Cause I feel you tonight A9 Em Cause I feel you, feel you Tonight
share this page

See Also: