E-Chords
Gato Negro

Prefiro Acreditar(Chords)

Gato Negro

roll up this ad to continue

Key: Dm
Intro Dm 

E|------------------------------------------------------------------| 
B|-6p5---------------------------x5t--6-------------------x5t-------| 
G|-----7-5-------------x5t---5h7--------7--------x5t---5h7------5-7-| 
D|---------7--------5h7---------------------5h7---------------------| 
A|-----------8-5----------------------------------------------------| 
E|------------------------------------------------------------------|
E|------------------------------------------------------------------| 
B|---------------x5t--6------------------------6p5------------------| 
G|------x5t---5h7--------7--------x5t--------------7-5--------------| 
D|--5h7---------------------5h7--------7---------------7------------| 
A|-------------------------------------------------------8-5--------| 
E|------------------------------------------------------------------|
Dm Essa vontade de te dar o mundo Gm C Acontece sempre ao te ver pensando no que eu não sei Dm O olhar distante mexe com minha cabeça Gm C Será mesmo o meu amor ou será outra decepção? F A Sei lá eu prefiro acreditar Dm G Bb Que o teu sonho é pra sempre estar a meu lado assim como o meu F A É vale a pena se entregar Dm Bb C F Pois meu amor é teu e o mundo pode parar Bb D# A Que nada vai nos separar, te amo! Dm Bb C F Pois meu amor é teu e o mundo pode parar Bb D# A Que nada vai nos separar, meu beeeem! Riff
E|-----------------------------------------------------------------| 
B|-----------------x5t--6-------------------x5t--------------------| 
G|-------x5t---5h7--------7--------x5t---5h7------5-7--------------| 
D|---5h7---------------------5h7-----------------------------------| 
A|-----------------------------------------------------------------| 
E|-----------------------------------------------------------------|
E|-----------------------------------------------------------------| 
B|---------------x5t--6------------------------6p5-----------------| 
G|------x5t---5h7--------7--------x5t--------------7-5-------------| 
D|--5h7---------------------5h7--------7---------------7---7---5---| 
A|-------------------------------------------------------8---7---5-| 
E|-----------------------------------------------------------------|
Dm Essa vontade de te dar o mundo Gm C Acontece sempre ao te ver pensando no que eu não sei Dm O olhar distante mexe com minha cabeça Gm C Será mesmo o meu amor ou será outra decepção? F A Sei lá eu prefiro acreditar Dm G Bb Que o teu sonho é pra sempre estar a meu lado assim como o meu F A É vale a pena se entregar Dm Bb C F Pois meu amor é teu e o mundo pode parar Bb D# A Que nada vai nos separar, te amo! Dm Bb C F Pois meu amor é teu e o mundo pode parar Bb D# A Que nada vai nos separar, meu beeeem!
share this page

See Also: