E-Chords
Gapatas

Em Nome Do Skinão Disso Amiguinho(Chords)

Gapatas

roll up this ad to continue

Key: E
      E 
E|----0--0--0--4--7------9--7--4--0--4--7-------| 
B|-0------------------------------------------0-| 
G|----------------------------------------------| 
D|----------------------------------------------| 
A|----------------------------------------------| 
E|----------------------------------------------|
   E                      B7          E 
E|-0--0--0--4--7-------9--7--5--4--2--0---------| 
B|--------------------------------------------0-| 
G|----------------------------------------------| 
D|----------------------------------------------| 
A|----------------------------------------------| 
E|----------------------------------------------|
   E                                 B7 
E|----4--4-------4--4-------4--4--7--7--2--2----| 
B|-0----------0----------0--------------------0-| 
G|----------------------------------------------| 
D|----------------------------------------------| 
A|----------------------------------------------| 
E|----------------------------------------------|
   B7                                E 
E|----2--2-------2--2----------2--5--4--0--0----| 
B|-0----------0----------0--4-------------------| 
G|----------------------------------------------| 
D|----------------------------------------------| 
A|----------------------------------------------| 
E|----------------------------------------------|
share this page

See Also: