E-Chords
Gabriela Rodrigues

Minha Herança(Chords)

Gabriela Rodrigues

roll up this ad to continue

Key: Am
Intro:  Am7  G  F9  C/E  G/B 
        Am7  G  F9  Am7  G/B 

E|-8-8-8-7-7-7-------|-8-8-8-7-7-7-------|-8-8-8-7-7-7-------| 
B|-------------8-8-8-|-------------------|-------------8-8-8-| 
G|-------------------|-------------9-9-9-|-------------------| 
D|-------------------|-------------------|-------------------| 
A|-------------------|-------------------|-------------------| 
E|-------------------|-------------------|-------------------| 


E|-8-8-8--10-10-10--12-12-12--13-13-13--15-15-15-15-15-15-15-| 
B|-----------------------------------------------------------| 
G|-----------------------------------------------------------| 
D|-----------------------------------------------------------| 
A|-----------------------------------------------------------| 
E|-----------------------------------------------------------| 
C G/B A minha herança é o Senhor, sua porção é o meu favor F9 Am7 G Celebrarei e cantarei a minha gratidão C G/B Com gozo e alegria, eu , levanto minhas mãos ao céu F9 Am7 G Derramo o meu coração na presença de Deus Dm Am Pois livre estou pra te adorar, me prostrarei em teu altar C G Quero em teus braços me jogar e poder descansar
           Dm                                        Am 
E|-------------------------------|----------------------------------------------| 
B|-------------------------6-6-6-|-------------------------------------13-13-13-| 
G|-------------------7-7-7-------|----------------------------14-14-14----------| 
D|-------------7-7-7-------------|-------------------14-14-14-------------------| 
A|-5-5-5-8-8-8-------------------|-12-12-12-15-15-15----------------------------| 
E|-------------------------------|----------------------------------------------| 
C F9 Am7 G Celebrarei e dançarei, a minha alegria é o Senhor C/E F9 Am7 G Eu bradarei e me levantarei, ao mundo proclamarei Que não há outro como tu ( Am7 G F9 C/E G/B ) ( Am7 G F9 Am7 G/B )
E|--------------------------------------------| 
B|--------------------------------------------| 
G|-5-5-5-5-5-5-5-5~~-----5--5-5--5-5--7b9-7b9-| 
D|-------------------5-7----------------------| 
A|--------------------------------------------| 
E|--------------------------------------------| 


E|-------------------8-8-8-7-7-7---| 
B|-------------------------------8-| 
G|-5-5-5-5-5-5-5-5-----------------| 
D|---------------------------------| 
A|---------------------------------| 
E|---------------------------------| 
C G/B A minha herança é o Senhor, sua porção é o meu favor F9 Am7 G Celebrarei e cantarei a minha gratidão C G/B Com gozo e alegria, eu , levanto minhas mãos ao céu F9 Am7 G Derramo o meu coração na presença de Deus Dm Am Pois livre estou pra te adorar, me prostrarei em teu altar C G Quero em teus braços me jogar e poder descansar
            Dm                                        Am 
E|-------------------------------|----------------------------------------------| 
B|-------------------------6-6-6-|-------------------------------------13-13-13-| 
G|-------------------7-7-7-------|----------------------------14-14-14----------| 
D|-------------7-7-7-------------|-------------------14-14-14-------------------| 
A|-5-5-5-8-8-8-------------------|-12-12-12-15-15-15----------------------------| 
E|-------------------------------|----------------------------------------------| 
C F9 Am7 G Celebrarei e dançarei, a minha alegria é o Senhor C/E F9 Am7 G Eu bradarei e me levantarei, ao mundo proclamarei Que não há outro como tu ( F9 G ) ( F9 G ) ( F9 G ) ( F9 G ) ( F9 G ) ( F9 G ) C F9 Am7 G Celebrarei e dançarei, a minha alegria é o Senhor Riff C/E F9 Am7 G Eu bradarei e me levantarei, ao mundo proclamarei
Riff 

E|-----------| 
B|-----------| 
G|-9--10--12-| 
D|-x--x---x--| 
A|-7--8--10--| 
E|-----------| 
C F9 Am7 G Celebrarei e dançarei, a minha alegria é o Senhor C/E F9 Am7 G Eu bradarei e me levantarei, ao mundo proclamarei Que não há outro como tu ( Am7 G F9 C/E G/B ) ( Am7 G F9 Am7 G/B )
E|-8-8-8-7-7-7-------|-8-8-8-7-7-7-------|-8-8-8-7-7-7-------| 
B|-------------8-8-8-|-------------------|-------------8-8-8-| 
G|-------------------|-------------9-9-9-|-------------------| 
D|-------------------|-------------------|-------------------| 
A|-------------------|-------------------|-------------------| 
E|-------------------|-------------------|-------------------| 


E|-8-8-8--10-10-10--12-12-12--13-13-13--15-15-15-15-15-15-15-| 
B|-----------------------------------------------------------| 
G|-----------------------------------------------------------| 
D|-----------------------------------------------------------| 
A|-----------------------------------------------------------| 
E|-----------------------------------------------------------| 

Celebrarei 

E|-----------| 
B|-----------| 
G|-9--10--12-| 
D|-x--x---x--| 
A|-7--8--10--| 
E|-----------| 
( C5 )
share this page

See Also: