E-Chords
Gabriela Rodrigues

Jeová É O Teu Cavaleiro Medley Cover(Chords)

Gabriela Rodrigues

roll up this ad to continue

Key: F#m
Intro: F#m  A9  E  B9 
1- 
E|-----------------------------------------------------| 
B|-----------------------------------------------------| 
G|-----------------------------------------------------| 
D|-4/6'-6/4~--4/6-6/4~--6/9~--9\4~---------------------| 
A|-----------------------------------------------------| 
E|-----------------------------------------------------| 

2- 
E|-----------------------------------------------------| 
B|-5-------------------5-------------------------------| 
G|-4-------------------4-------------------------------| 
D|-4h6p6--------2----2-6-------------------------------| 
A|-------7--2h4----6---7-------------------------------| 
E|-----------------------------------------------------| 
E Outra noite fracassada Sem você do lado A9 Tô saindo da boate C#m Todo incomodado B9 Tá na cara que não te esqueci E Na saída um casal Se beijando na rua A9 Até pareceu nós dois C#m Senti saudades sua B9 Quase não reconheci F#m A9 Até assustei, e o copo deixei Cair da minha mão E Era você B9 Beijando outro sem parar F#m E/G# Por isso eu liguei A9 Melhor esquecer E A última mensa___gem Que acabei de enviar B9 A/C# B/D# Melhor desconsiderar F#m Esquece, toda essa besteira Que você já leu A9 Não tá mais aqui O trouxa que escreveu E É culpa da bebida Foi só Recaída B9 A/C# B/D# Pelo amor de Deus F#m Esquece, percebi que tá E/G# Bem melhor do que eu A9 Esse beijo que deu nele E Cê nunca me deu B9 Continua o que cê tá fazendo A/C# B/D# Cê vai beijando F#m Eu vou bebendo ( A9 E B9 ) F#m A9 Até assustei, e o copo deixei Cair da minha mão E Era você B9 Beijando outro sem parar F#m E/G# Por isso eu liguei A9 Melhor esquecer E A última mensa___gem Que acabei de enviar B9 A/C# B/D# Melhor desconsiderar F#m Esquece, toda essa besteira Que você já leu A9 Não tá mais aqui O trouxa que escreveu E É culpa da bebida Foi só Recaída B9 A/C# B/D# Pelo amor de Deus F#m Esquece, percebi que tá E/G# Bem melhor do que eu A9 Esse beijo que deu nele E Cê nunca me deu B9 Continua o que cê tá fazendo F#m Esquece, toda essa besteira Que você já leu A9 Não tá mais aqui E O trouxa que escreveu Foi só Recaída B9 A/C# B/D# Pelo amor de Deus F#m Esquece, percebi que tá Bem melhor do que eu A9 Esse beijo que deu nele E Cê nunca me deu B9 Continua o que cê tá fazendo Cê vai beijando F#m Eu vou bebendo ( A9 E B9 ) Cê vai beijando F#m Eu vou bebendo
share this page

See Also: