E-Chords
Fury In The Slaughterhouse

Every Generation Got Its Own Disease(Chords)

Fury In The Slaughterhouse

Key: Am
Intro: Am  F (x3) 


Verse 

    Am               
The more we take the less we give 
 Am               F        
That's the modern way to live  
 Am                 
someone says live fast die young 
        Am               F         
But the time runs always faster son 
  Am                
Diseases come diseases go 
Am             F             
Welcome to the final show 
 Am                     
Let's shake hands with plastic gloves 
    Am                F             
And watch out for the last white doves 

F and believe me, baby C G every generation got its own disease G Am F and I've got mine so help me please (2x)
Verse Am I think that I'm to young to die Am F Love that girl and say goodbye Am Change the girls like underwear Am F Using bodies without care Am The love has gone and what we've got? Am F A sweet perfume of sex and blood F and believe me, baby (Chorus) C / G every generation got its own disease G Am / F / and I've got mine so help me please (2x) Bridge Guitar melody Am E/G# G (2x) F F and believe me, baby (Chorus) C / G every generation got its own disease G Am / F / and I've got mine so help me please (2x)... (repeat Chorus and jam out ;-)
Hookline (Intro): 

    Am  (4x)    F   (4x) 
E|--------------||--------------||-------------|---------|------| 
B|-----1-0------||----1-0-------||-------------|---------|------| 
G|---------2----||--------0-----||-------------|---------|------| 
D|--------------||--------------||-------------|---------|------| 
A|--(0)---------||--------------||-------------|---------|------| 
E|--------------||-(1)----------||-------------|---------|------| 

Guitar melody (Bridge):                         

E|-------|----0-----|----(0)---|----0-----|----------|---------||------------| 
B|-------|----------|----------|----------|-----3----|---3-----||------------| 
G|-?2----|-2-----2--|-1--------|-1-----1--|-0--------|-0---0---||-0--0--0----| 
D|-------|----------|----------|----------|----------|---------||------------| 
A|-------|----------|----------|----------|----------|---------||------------| 
E|-------|----------|----------|----------|----------|-repeat--||------------| 

roll up this ad to continue

share this page

See Also: