E-Chords
Frankie Cosmos

If I Had A Dog(Chords)

Frankie Cosmos

roll up this ad to continue

Key: Bm
Bm         G 
If I had a dog 
Em                      C 
I'd take a picture everyday 
Bm         G 
Am I still so sad? 
Em             C 
Is that pretty lame? 
Bm        G 
Everybody says 
     Em            C 
Your decisions are okay 
    F        Em 
But here's a better idea 
      F           Em 
And a comment not about my brain 

Bm         G 
If I had a dog 
Em                 C 
I'd draw a picture everyday 
Bm            G 
Am I still so mad? 
Em                    C 
I guess that's pretty lame 
Bm        G 
Everybody says 
Em                     C 
The first one's just a game 
       F      Em 
You'll find a better one 
           F       Em 
And then a comment about my body 


Solo 
e|-------------------------------------------------| 
B|-15-15-15-15-12-12-------------------------------| 
G|-------------------14-14-12-12-------------------| 
D|-------------------------------12-12s14-12-12s14-| 
A|-------------------------------------------------| 
E|-------------------------------------------------| 

e|-------------------------------------------------------------------| 
B|-15-15-15-15-12-12-------------------------------------------------| 
G|-------------------14-14-12-12----------------------14-14-14-14-12-| 
D|-------------------------------12-12/14-12-12-12s14----------------| 
A|-------------------------------------------------------------------| 
E|-------------------------------------------------------------------| 
************************************** | / slide up **************************************
share this page

See Also: