E-Chords
Frankie Cosmos

Embody(Chords)

Frankie Cosmos

roll up this ad to continue

Key: D
Intro 
E--------------------------------------------| 
B---------------7-------------------7--------| 
G-----------6-------6-------------------6----| 
D-------7-----------------------7-----------7| 
A---5-----------------------5----------------| 
E--------------------------------------------| (x3) 
verse 1 F# E D A someday in bravery, I'll embody all the grace and lightness A D A D A everybody understands me, but I wish nobody understood me F# E so you could be the one who did D A embody all the grace and lightness A D A D A the world is pretty big, it's cool we fit on it F# E D A it makes me wanna grow, so I can go see more
  Sarah is a                        light            beam 
E----------------------------------------------------------------| 
B----------------------------------------------------------------| 
G----------------------------------------------------------------| 
D-----------------------------------5---5---5---5----------------| 
A---5---5---5---5---5---5---5---5-------------------5---5---5---5| 
E----------------------------------------------------------------| 

from the picture Jonah               sent           me 
E----------------------------------------------------------------| 
B----------------------------------------------------------------| 
G----------------------------------------------------------------| 
D-----------------------------------5---5---5---5----------------| 
A---5---5---5---5---5---5---5---5-------------------5---5---5---5| 
E----------------------------------------------------------------| 

it makes me so                      happy she                       embodies all the grace and  
E----------------------------------------------------------------------------------------------------| 
B----------------------------------------------------------------------------------------------------| 
G----------------------------------------------------------------------------------------------------| 
D----------------------------------------------------------------------------------------------------| 
A-------------------------------------------------------------------5---5---5---5---5---5---5---5----| 
E---2---2---2---2---2---2---2---2---0---0---0---0---0---0---0---0-----------------------------------5| 

    lightness                          
E----------------------------| 
B----------------------------| 
G----------------------------| 
D----------------------------| 
A----------------------------| 
E---5---5---5---5---5---5---5| 
A D A D A F# it's sunday night and my friends are friends with my friends E D A it shows me they embody all the grace and lightness A D A D A Florist signs are everywhere, Emily is in the air F# E on tour with Gabby D A we embody all the grace and lightness Outro
E--------------------------------------------| 
B---------------7-------------------7--------| 
G-----------6-------6-------------------6----| 
D-------7-----------------------7-----------7| 
A---5-----------------------5----------------| 
E--------------------------------------------| (x3)
share this page

See Also: