Frank Boeijen

Koud In Mijn Hart(Chords)

Frank Boeijen

Key: E

roll up this ad to continue

	        



Intro:  
    E  
e |------------------------------|    
B |------------------------------| 
G |--1-2-4-----1-2-4--2-1--------| 
D |-----------------------2-2----|  
A |------------------------------|   
E |------------------------------|    

            Bm            A   F#m A          E  
E |---------------------------------------------------| 
B |---------------------------------------------------| 
G |---------------------------------------------------| 
D |---2h4-2-2--0---0----------4----2-4-4-4-4-2-2-2----| 
A |--------------4------2-4-2-------------------------| 
E |---------------------------------------------------| 
E misschien was ik stil en dacht je wat denkt hij nou Bm A F#m A en misschien dat ik wel iets anders wou E D ik was heel even weg ik was er even niet A E want weet je liefste het was een beetje koud in mijn hart E overal zag ik zwart terwijl het wit had moeten zijn Bm A F#m A en ik keerde terug naar wat de goede tijd leek te zijn E D maar schijn bedriegt ik wist het even niet A E want weet je liefste het was een beetje koud in mijn hart A D E want weet je liefste het was een beetje koud in mijn hart G F#m Bm A en alles in me zegt ja G F#m Bm D als ik jou daar zo mooi zie staan G F#m Bm A en alles in me verlangt G F#m Bm D naar een beetje warmte in mijn hart solo (zie intro-solo) E er komt een tijd en die begint vandaag Bm A F#m A een tijd van vrijheid en misschien is het te laat E D misschien zeg je wel: 'vergeet het maar A E maar weet je liefste het was een beetje koud in mijn hart A D E maar weet je liefste het was een beetje koud in mijn hart A D E maar weet je liefste het was een beetje koud in mijn hart A D E maar weet je liefste het was een beetje koud in mijn hart A D E maar weet je liefste het was een beetje koud in mijn hart A D E maar weet je liefste het was een beetje koud in mijn hart uitro:
    E  
e |------------------------------|    
B |------------------------------| 
G |------------------------------| 
D |--1-2-4----1-2-1--------------|  
A |------------------2~----------|   
E |------------------------------|  
Koud in mijn hart / Frank Boeijen / Wilde Bloemen

Written by Frank Boeijen

See Also: