E-Chords
Francisco, el Hombre

Minha Casa(Chords)

Francisco, el Hombre

Key: G
Intro : G  C  D  C 

 
     G          C          D         C 
E|-----3-------------0------2--------------------| 
B|-------3---------1---3------3---------1--0-----| 
G|---------0--------------------2------------0---| 
D|------------------------0----------------------| 
A|------------0-3------------------0-3-----------| 
E|--3--------------------------------------------| 
(Continua o dedilhado da introdução) Minha casa não tem parede, não tem janela, nem tem porta pra trancar Amigo que é amigo sabe que sempre será a hora de entrar Minha casa não tem parede, não tem janela, nem tem porta pra trancar Amigo que é amigo sabe que sempre será a hora de entrar (Para o dedilhado no próximo verso e depois volta a ser tocado pelo 2º violão) G G D C D G C D C A minha vó me disse que casas terei mil mas só terei um lar G C D C G C D C O lar não é onde nasceu/cresceu mas onde as cinzas enterrar G C D C G C D C Essa casa é passageira como o meu corpo e quando não a quiser mais G C D C G C D C Minha vida estará na minha mochila e o meu corpo se desfaz ( G C D C ) 2x
      G 
E|---3-----7-7/5-5-5/3-3-3/-------| 
B|---3-----8-8/7-7-7/5-5-5/-------| 
G|---0----------------------------| 
D|---0----------------------------| 
A|---2----------------------------| 
E|---3----------------------------| 
 

( D C D ) 

 
      G 
E|---3-----7-7/5-5-5/3-3-3/-------| 
B|---3-----8-8/7-7-7/5-5-5/-------| 
G|---0----------------------------| 
D|---0----------------------------| 
A|---2----------------------------| 
E|---3----------------------------| 
 
( D C D ) Breakdown: G G O o meu lar encontrei nas pessoas que amei G G D C D O o meu lar encontrei nas pessoas que amei G G D C D O o meu lar encontrei nas pessoas que amei G G D C O o meu lar encontrei nas pessoas que amei Verso: ( Continua tocando o breakdown como backing-vocal ) G C D C G C D C Minha casa não tem parede, não tem janela, nem tem porta pra trancar G C D C G C D C Amigo que é amigo sabe que sempre será a hora de entrar G C D C G C D C Essa casa é passageira como o meu corpo e quando não a quiser mais G C D C Minha vida estará na minha mochila e o meu corpo se desfaz G C D O o meu lar encontrei nas pessoas que amei
 
     G          C          D         C 
E|-----3-------------0------2--------------------| 
B|-------3---------1---3------3---------1--0-----| 
G|---------0--------------------2------------0---| 
D|------------------------0----------------------| 
A|------------0-3------------------0-3-----------| 
E|--3--------------------------------------------| 
Nas pessoas que amei Nas pessoas que amei G Nas pessoas que amei

roll up this ad to continue

share this page

See Also: