E-Chords
Francisco, el Hombre

Francisco, El Hombre(Chords)

Francisco, el Hombre

Key: Am
Verso: 

Am        F E 
Desde pequeño  
Am        F E 
yo preguntaba 
     Am              F  E 
si puedo ser quien quiera  
Bm11   E7 
No se puede  

Am        F E 
Iban diciendo  
Am          F   E 
y siguen diciendo 
       Am           F  E 
que vivir de la guitarra  
Bm11   E7 
No se puede 

Base: Am  F  E  Am  F  E  Am  F  E  Bm11  E7 

Montagem do Bm11: 

 
E|-----0---------| 
B|-----3---------| 
G|-----2---------| 
D|-----3---------| 
A|-----2---------| 
E|-----x---------| 
Solo:
 
E|-----------------------------------------------------------------| 
B|-/13--13--13/12--12--12/10--10--10-------------------------------| 
G|-----------------------------------------------------------------| 
D|-----------------------------------------------------------------| 
A|-----------------------------------------------------------------| 
E|-----------------------------------------------------------------|  
 
E|---------------------13--12--------------------------------------| 
B|-/10--12--13--12--10---------------------------------------------| 
G|-----------------------------------------------------------------| 
D|-----------------------------------------------------------------| 
A|-----------------------------------------------------------------| 
E|-----------------------------------------------------------------|  
 
E|-10--12--13--12--10----10----------------------------------------| 
B|--------------------13----13--12---------------------------------| 
G|-----------------------------------------------------------------| 
D|-----------------------------------------------------------------| 
A|-----------------------------------------------------------------| 
E|-----------------------------------------------------------------|  
 
E|--------12--------10---------------------------------------------| 
B|-13--13----13--12----8--10---------------------------------------| 
G|-----------------------------------------------------------------| 
D|-----------------------------------------------------------------| 
A|-----------------------------------------------------------------| 
E|-----------------------------------------------------------------|  
Verso: Am F E Nos lo dudaron Am F E nos contestaron Am F E que vivir de sin ser esclavo Bm11 E7 No se puede Am F E Nos derrumbaron Am F E y nos lo gritaron Am F E que vivir de pelo largo Bm11 E7 No se puede Bm11 E7 No se puede
Dm E7 Am Caminhando com minha guitarra Dm E7 Am Somos as fronteiras que cruzei. Dm G A cada passo andado C G/B Am Bm11 E7 sou o caminho que me é dado e pra sempre cantarei.
Base: Am F E Am F E Am F E Bm11 E7 (2x) Solo: (2x)
 
E|-----------------------------------------------------------------| 
B|-/13--13--13/12--12--12/10--10--10-------------------------------| 
G|-----------------------------------------------------------------| 
D|-----------------------------------------------------------------| 
A|-----------------------------------------------------------------| 
E|-----------------------------------------------------------------|  
 
E|---------------------13--12--------------------------------------| 
B|-/10--12--13--12--10---------------------------------------------| 
G|-----------------------------------------------------------------| 
D|-----------------------------------------------------------------| 
A|-----------------------------------------------------------------| 
E|-----------------------------------------------------------------|  
 
E|-10--12--13--12--10----10----------------------------------------| 
B|--------------------13----13--12---------------------------------| 
G|-----------------------------------------------------------------| 
D|-----------------------------------------------------------------| 
A|-----------------------------------------------------------------| 
E|-----------------------------------------------------------------|  
 
E|--------12--------10---------------------------------------------| 
B|-13--13----13--12----8--10---------------------------------------| 
G|-----------------------------------------------------------------| 
D|-----------------------------------------------------------------| 
A|-----------------------------------------------------------------| 
E|-----------------------------------------------------------------|  
Verso: Am F E Y cuando veo que yo me visto como quiera Am F E y cuando veo que yo vivo a mi manera Am F E recuerdo lo que escuchaba por la escuela Bm11 E7 No se puede Am F E Pero que cosa Am F E uso mi voz para Am F E cantarle a los que acosan Bm11 E7 No se puede Bm11 E7 No se puede Interlúdio: Am Santiago, Barao, Mendoza y Hamburgo C son puntas distintas de un mismo mundo F y abren las puertas para un desayuno E7 a un brasileño que anda sin rumo Am Vamos tumbando las puertas que cierran C vamos sacando el 'no' del 'se puede' F E7 Cada paso firme construye un nuevo andar Am Mira bien a tu al rededor C a lo lindo que es la vida y F E7 Am dime si tu piensas que tu mundo es el único entre la tierra y el sol. C F E7 Pues canten todos conmigo, que sepan lo que no olvido: Si se puede!
Dm E7 Am Caminhando com minha guitarra Dm E7 Am Somos as fronteiras que cruzei. Dm G A cada passo andado C G/B Am Bm11 E7 sou o caminho que me é dado e pra sempre cantarei. Dm E7 Am Caminhando com minha guitarra Dm E7 Am sigo os passos vindo do meu peito. Dm E7 A cada passo andado C G/B Am sou o carinho que me é dado Bm11 E7 e para sempre cantarei
Cadência final: Am F E (3x) Am

roll up this ad to continue

share this page

See Also: