E-Chords
Forró Pegado

Ex-guete(Chords)

Forró Pegado

roll up this ad to continue

Key: G#m
Intro:  

  
E|----6-6-6-6-6-6-8----------------10-8---------|  
B|------------------8----10-11------------------|  
G|----------------------------------------------|  
D|----------------------------------------------|  
A|----------------------------------------------|  
E|----------------------------------------------|(4x)  
Gm Eb F Gm Mas a danada ta tão quietinha não vai pra festa sozinha Eb F Gm Mas a danada se aquietou, se coração a alguém ela entregou. (2x) Eb Bb F Gm Quem conhece essa menina se surpreende quando vê Eb Bb F Gm Hoje ela ta na linha, mas foi pagodeira, forrozeira, namoradeira e cachaceira. Gm Piri, Piri, Piri Eb Bb F Ex- Guete, Ex- Guete, Ex- Guete Gm Piri, Piri, Piri Eb Bb F Ex- Guete, Ex- Guete, Ex- Guete Gm Eb Bb Não sabia, mas não via hora de soltar a piriguete F Ex- Guete Gm Piri, Piri, Piri Eb Bb F Ex- Guete, Ex- Guete, Ex- Guete
  
E|----6-6-6-6-6-6-8----------------10-8---------|  
B|------------------8----10-11------------------|  
G|----------------------------------------------|  
D|----------------------------------------------|  
A|----------------------------------------------|  
E|----------------------------------------------|(4x)  
(Repete Tudo)
share this page

See Also: