E-Chords
Fluid Underground

Zlocin Ili Kazna(Chords)

Fluid Underground

roll up this ad to continue

Key: A
Teme: 
E|---------------------------------------------------| 
B|---------------------------------------------------| 
G|---------------------------------------------------| 
D|--2--------5--------7--------10--------9-----9-----| 
A|-----0--0-----0--0-----0--0------0--0-----0-----0--| 
E|---------------------------------------------------| G5 


E|---------------------------------------------------| 
B|---------------------------------------------------| 
G|---------------------------------------------------| 
D|--2---2--2----5---5--5----7---7--7--7-----9-10-9---| 
A|--0---0--0----0---0--0----0---0--0--0-----0-0--0---| 
E|---------------------------------------------------| G5 


E|-----------------------| 
B|-----------------------| 
G|-----------------------| 
D|--2---2-2----7---7--7--| 
A|--0---0-0----0---0--0--| 
E|-----------------------| 
A5 G5 kasno je da shvatis da sada je kasno pravis se da zivis i smejes se glasno citas knjige o nekom da promenis sebe ja verujem u ljude al ne i u tebe A5 G5 pogled ti stalno seta jer stojis u mestu nemas nikog uz sebe i ponavljas gresku svako ko nije svoj taj je prijatelj tvoj ubijas ubrzo sve jer vreme nestaje A5 C5 tvoje reci su greh G5 tvoje usne su smeh C5-C5-C5 G5 C5 djavola crnog A5 C tvoje oci su laz G5 tvoj miris je smrad C5-C5-C5 G5 C5 djavola crnog Band page: http://www.fluid.co.nr/ Transkripcija: Stevan Golubovic
share this page

See Also: