E-Chords
Florida Georgia Line

Cruise(Chords)

Florida Georgia Line

Watch the video lesson
Key: G
Intro tab over the chords G, D, Em7, C9  
e||:--------------------------------------------------------:||  
B||:--------------0-3-3-3-5-3--------------1-0-1-0-1-0------:||  
G||:--2^-2^-0------------------2^-2^-0-----------------2-0--:||  
D||:----------0-2----------------------0-2------------------:||  
A||:--------------------------------------------------------:||  
E||:--------------------------------------------------------:||  

Verse 1 A# F The first time I saw that bikini top on her Gm D# she was poppin' right out of the south Georgia water A# F I thought 'Oh Good Lord, she has them long tanned legs' Gm D# Couldn't help myself, so I walked up and said. A# F Gm D# Baby, you a song. You make me wanna roll my windows down and cruise. A# F Down a backroad, blowin' stop signs through the middle Gm D# every litte farm town with you. A# F This brand new Chevy with a lift kit, Gm D# would look a helluvalot better with you up in it. A# F Gm D# Baby, you a song. You make me wanna roll my windows down and cruise.
Play the same as the intro ONE time over A# F Gm D#  
e|--------------------------------------------------------|  
B|--------------0-3-3-3-5-3--------------1-0-1-0-1-0------|  
G|--2^-2^-0------------------2^-2^-0-----------------2-0--|  
D|----------0-2----------------------0-2------------------|  
A|--------------------------------------------------------|  
E|--------------------------------------------------------|  

Verse 2: A# F She was sippin' on Southern and singin' Marshall Tucker Gm D# We were fallin' in love in the sweet heart of summer A# F She hopped right up into the cab of my truck and said Gm D# 'Fire it up, let's go get thing stuck!'
A# F Gm D# Baby, you a song. You make me wanna roll my windows down and cruise. A# F Down a backroad, blowin' stop signs through the middle Gm D# every litte farm town with you. A# F This brand new Chevy with a lift kit, Gm D# would look a helluvalot better with you up in it. A# F Gm D# Baby, you a song. You make me wanna roll my windows down and cruise.
Solo Bridge: A# F Gm D# When that summer sun fell to it's knees I looked at her and she looked at me A# F Gm D# And I turned on those KC lights and drove all night cause it felt so right D# Hurry now don't it feel so right. (Single strums on acoustic guitar) A# F I put it in park and grabbed my guitar and Gm D# strummed a couple chords and sang from the heart. A# F Girl you know you got the beat in my chest pumpin' Gm D# Hell I can't get you outta my head.
A# F Gm D# Baby, you a song. You make me wanna roll my windows down and cruise. A# F Down a backroad, blowin' stop signs through the middle Gm D# every litte farm town with you. A# F Gm D# Baby, you a song. You make me wanna roll my windows down and cruise. A# F Down a backroad, blowin' stop signs through the middle Gm D# every litte farm town with you. A# F This brand new Chevy with a lift kit, Gm (band stops) D# Band back in would look a helluvalot better with you up in it. COME ON! A# F Gm D# Baby, you a song. You make me wanna roll my windows down and cruise.
 
e|--------------------------------------------------------|  
B|--------------0-3-3-3-5-3--------------1-0-1-0-1-0------|  
G|--2^-2^-0------------------2^-2^-0-----------------2-0--|  
D|----------0-2----------------------0-2------------------|  
A|--------------------------------------------------------|  
E|--------------------------------------------------------|  

C'mon girl!  Get those windows down and cruise.    

e|--------------------------------------------------------|  
B|--------------0-3-3-3-5-3--------------1-0-1-0-1-0------|  
G|--2^-2^-0------------------2^-2^-0-----------------2-0--|  
D|----------0-2----------------------0-2------------------|  
A|--------------------------------------------------------|  
E|--------------------------------------------------------|  

     A#  
Aww yeah! 

roll up this ad to continue

share this page

See Also: