E-Chords
Flatsound

You Are The Coffin(Chords)

Flatsound

roll up this ad to continue

Key: A
Intro: A  F#m  A  F#m  

RIFF 1: 

       e|--------------------------------------------------------| 
       B|-10-10-10-10-10-10-10-10-10-10-10-10-10-10-10-----------| 
       G|--------------------------------------------------------| 
       D|--------------------------------------------------------| 
       A|--------------------------------------------------------| 
       E|--------------------------------------------------------| 




RIFF 2: 

       e|----------------------------| 
       B|-5--5-----5--5--3-----3-----| 
       G|-------------------6--------| 
       D|----------------------------| 
       A|----------------------------| 
       E|----------------------------| 





RIFF 3: 
  
        e|-----------------------------------------------9--------| 
        B|-10-10-10-10-10-10-10-10-10-10-10-10-10-10-10-----------| 
        G|--------------------------------------------------------| 
        D|--------------------------------------------------------| 
        A|--------------------------------------------------------| 
        E|--------------------------------------------------------| 





        e|--------------------------------------------------------| 
        B|-10-10-10-10-10-10-10-10-10-10-10-10-10-10-10-9---------| 
        G|------------------------------------------------9-------| 
        D|--------------------------------------------------------| 
        A|--------------------------------------------------------| 
        E|--------------------------------------------------------| 
A I am doing just fine, thank you F#m I know how much you like to keep in touch A F#m so you can talk about it A and you said, who was that, who were you talking to? F#m A is that the reason you're too scared to go downtown? F#m and talk about it. A she said it's my own body, I did what I wanted F#m ever since god made me bleed A if he is a pedophile, you are the coffin F#m A and you're the reason that I can't breathe Play RIFF 1 or just: F#m A F#m A F#m A F#m A F#m | I'll sleep inside of your chest | A F#m | (You can also play RIFF 2 x4) and fight those thoughts in your head | A F#m | some say we should take a rest | A F#m | I think I'd rather be dead | A her own body, she did what she wanted | F#m | ever since god made her bleed | A | (You can play RIFF 1) if he's a pedophile you are a monster | F#m A | and you're the reason that I can't sleep | Play RIFF 3
share this page

See Also: