E-Chords
flatfoot 56

Ty Cobb(Chords)

flatfoot 56

roll up this ad to continue

Key: Gm
Intro 
   Gm    Eb  Bb     Gm    Eb   Bb 
e|----------------------------------| 
B|-6--/8-6----------6--8--6\3-------| 
G|-----------5/7---------------3----| 
D|----------------------------------| x2 
A|----------------------------------| 
E|----------------------------------|
verse 1 Bb I've broken many stats and my record surely holds Eb Cm Bb I'm the meanest man in baseball so I'm told Bb Got fire in my eyes as my father is growing cold Gm Cm Bb he was shot by my mother, I was 18 years old verse 2 Bb Don't throw the ball away, my feet won't stay Eb Cm Bb I'm the fastest son of a gun you ever saw Bb Heckler in the stands, won't you give the man a hand Eb Cm Bb Watch me jump the bleacher line to beat him raw
Gm Eb Bb I'd climb a mountain to slap an echo it's true Gm Eb Bb I'd climb a mountain to slap an echo it's true Gm Eb Bb It should come as no surprise, and don't avert your eyes Cm Eb Bb As the sharpest cleats in baseball come for you
Interlude 
   Gm    Eb  Bb     Gm    Eb   Bb 
e|----------------------------------| 
B|-6--/8-6----------6--8--6\3-------| 
G|-----------5/7---------------3----| 
D|----------------------------------| x2 
A|----------------------------------| 
E|----------------------------------| 
verse 3 Bb I've been made to score in this game I call a war Eb Cm Bb No gentleman's pass time that's for sure Bb Carry millions in a bag with a pistol I can snag Eb Cm Bb I carry it all cause I'm secure verse 4 Bb I'm catching all the blame cause I'm anything but tame Eb Cm Bb They call me Georgia Peach I hate that name Bb Claimed I stabbed a man, a drifter of the land Eb Cm Bb When you're in my way then you're to blame
Gm Eb Bb I'd climb a mountain to slap an echo it's true Gm Eb Bb I'd climb a mountain to slap an echo it's true Gm Eb Bb It should come as no surprise, and don't avert your eyes Cm Eb Bb As the sharpest cleats in baseball come for you Gm Eb Bb I'd climb a mountain to slap an echo it's true Gm Eb Bb I'd climb a mountain to slap an echo it's true Gm Eb Bb It should come as no surprise, and don't avert your eyes Cm Eb Bb As the sharpest cleats in baseball come for you
Solo 
   F               Eb            Bb 
e|---------------------------------------------------| 
B|----------------------------------6-----------6----| 
G|-----------------------------5/7----7----5/7----7--| 
D|-----------------0--3/5--3-------------------------| 
A|-------1/3--1-3------------------------------------| 
E|-1--3----------------------------------------------| 
   F             Eb           Bb 
e|-------------------------------------------------------| 
B|-6--6-4--3-3/4--3--------------6-------------6---------| 
G|------------------3--5-3--5/7----7--5-3-5/7----7--5-3--| 
D|-------------------------------------------------------| 
A|-------------------------------------------------------| 
E|-------------------------------------------------------| 
   F           Eb           Bb 
e|-----------------------------------------------------| 
B|-6--6-4--3-6/8--6------------6-------------6---------| 
G|-------------------7----5/7----7--5-3-5/7----7--5-3--| 
D|---------------------8-------------------------------| 
A|-----------------------------------------------------| 
E|-----------------------------------------------------| 
   F               Eb        Bb 
e|----------------------------------| 
B|-----------------6-6-6-6-4-3------| 
G|----3-3/5--3--5--------------3----| 
D|-5--------------------------------| 
A|----------------------------------| 
E|----------------------------------| 
Chorus Gm Eb Bb I'd climb a mountain to slap an echo it's true Gm Eb Bb I'd climb a mountain to slap an echo it's true Gm Eb Bb It should come as no surprise, and don't avert your eyes Cm Eb Bb As the sharpest cleats in baseball come for you Gm Eb Bb I'd climb a mountain to slap an echo it's true Gm Eb Bb I'd climb a mountain to slap an echo it's true Gm Eb Bb It should come as no surprise, and don't avert your eyes Cm Eb Bb As the sharpest cleats in baseball come for you Outro Cm Eb Bb As the sharpest cleats in baseball come for you Cm Eb Bb As the sharpest cleats in baseball come for you Cm Eb Bb As the sharpest cleats in baseball come for you
share this page

See Also: