E-Chords
Flaming Lips

Placebo Headwound(Chords)

Flaming Lips

roll up this ad to continue

Key: Am
  

Intro Chords 
   F   Am  G   C 
e|-1---0---3---0---| 
B|-1---1---0---1---| 
G|-2---2---0---0---| 
D|-3---2---0---2---| 
A|-3---0---2---3---| 
E|-1-------3-------| 

Verse Chords 
  Gmaj7  D   A   G 
e|-2-----2---0---3---| 
B|-3-----3---2---0---| 
G|-0-----2---2---0---| 
D|-0-----0---2---0---| 
A|-x---------0---2---| 
E|-3-------------3---| 

Chorus Chords 
   Em  B   Am  C   D    D7 
e|-7---7---5---8---10---10---| 
B|-8---7---5---8---10---10---| 
G|-9---8---5---9---11---11---| 
D|-9---9---7---10--12---10---| 
A|-7---9---7---10--12---12---| 
E|-----7---5---8---10---10---| 
Intro: F Am G C Verse: Gmaj7 Where does outer space end? It's sort of hard to imagine D A G Is it real? D A G Is it nothing, nothing?
Em B Em B Am B C D D7 Cause it's not so clear anymore to me
Verse: Gmaj7 Why do birds always fly south D A G When sometimes it's warm in your headwound D A G Is that nothing, nothing?
Em B Em B Am B C D D7 Cause it's not so clear anymore to me
Verse: Gmaj7 And if God hears all my questions D A G Well how come there's never an answer? D A G D Is it nothing, nothing? Outro: D A D A D A D A
share this page

See Also: