E-Chords
Faichecleres

Indecente, Imoral E Sem Vergonha(Chords)

Faichecleres

Key: A
Intro: 

E|------------------------------------ 
B|-4-4-4---4-4---7-5---4-------4------ 
G|-4-4-4---4-4---4-4---4---6--4------- 
D|------------------------------------ 
A|------------------------------------ 
E|------------------------------------ 

E|------------------------------7---7-7---7-7-7-7-- 
B|-7h10p7---7---7---7-7---7---7-7---7-7-7-7-------- 
G|-8-----------8---8---8-8------------------------- 
D|------------------------------------------------- 
A|------------------------------------------------- 
E|------------------------------------------------- 

Riff: 
(Base: A D4 D, A C D) 

E|--------------------------------------------------------- 
B|--------------------------------------------------------- 
G|--------------------------------------------------------- 
D|--------------------7------------------------------------ 
A|--------------7-9-----10---10-10-9---9-7----------------- 
E|-5---7/9--------------------------------------------9-5-- 

E|--------------------------------------------------------- 
B|--------------------------------------------------------- 
G|--------------------------------------------------------- 
D|--------------------------------------------------------- 
A|--------------7----------------------5---5--------------- 
E|-5---7/9---------5-7-8---8-8---------------8-7----------- 
B F# Ontem à noite eu conheci uma garota A E G A Que era meio louca B F# Me convidou para tomar uma cerveja e disse: A E G-A 'Beibê, deixa que eu pago a conta.' Sinceramente eu nem lembro do seu nome Ainda perdi o telefone - nem sei se ela me deu Ela começa e não para, o que é normal lhe faz mal E ficar de cara, não lhe faz muito bem F# B A Quando encarna um rock'n'roll
Riff 
E|-------------------------------- 
B|--------------------------5----- 
G|--------------------------4----- 
D|--------------------------2----- 
A|--------------2-3-4------------- 
E|-0-0-3-4------------------------ 
D4 D B4 B Ela é a Honk Tonky Girl (aquele riff do começo): E ela era o diabo em dobro Bruxa pegando fogo Pecado mortal e enfim O demônio encarnado em mim

roll up this ad to continue

share this page

See Also: