E-Chords
Fabio Frizzi

Unreal Sounds(Chords)

Fabio Frizzi

 verse 1 
e|------0---------| 
B|--------3---1---| 
G|----4-----2---0-| 
D|2-2-------------|   x 16 
A|----------------| 
E|----------------| 

 verse 2 
e|----------------| 
B|------8-6---4---| 
G|----7-----5---3-| 
D|5-5-------------|   x 16 
A|----------------| 
E|----------------| 

 verse 3 
e|------0---------| 
B|--------3---1---| 
G|----4-----2---0-| 
D|2-2-------------|   x 12 
A|----------------| 
E|----------------| 

 verse 4 
e|----------------| 
B|------8-6---4---| 
G|----7-----5---3-| 
D|5-5-------------|   x 16 
A|----------------| 
E|----------------| 

roll up this ad to continue

share this page

See Also: