E-Chords
Eric e Henrique

Amor Sem Juízo(Chords)

Eric e Henrique

Key: G
Intro G  Bm  C  D   
        G  Bm  C  D 
        G  Bm  C  D   
        G  Bm  C 

E|--------------------------------------------| 
B|----------------3-3-3-3-3--1--0-----0-------| 
G|-0---2--4--0---------------------2-----0----| 
D|---0-------------------------------------0--| 
A|--------------------------------------------| 
E|--------------------------------------------|
E|--------------------------------------------| 
B|----------------3-3-3-3-3--1--0-----0----3--| 
G|-0---2--4--0---------------------2-----0----| 
D|---0----------------------------------------| 
A|--------------------------------------------| 
E|--------------------------------------------|
G Bm C Meu amor C/D G Bm C C/D Hoje eu acordei sonhando com você G Bm C Meu amor eu sei C/D G Bm C C/D Que o seu coração tambem pensou em mim C Quero ouvir de novo o som da tua voz D/C Temos tantas coisas pra falar de nós Bm Em Porque a saudade dói demais assim C G/B Am Am/G D/F# D Se eu pudesse ter você comigo aqui Am C D E Pra sentir as mesmas coisas que eu senti A Bm Nós já brigamos demais A/C# D E a sua falta me faz Bm Bm/A E/G# E Na solidão procurar teu sorriso A Bm Eu ja cansei de sofrer A/C# D Bm Por isso tente entender Bm Bm/A E/G# E O meu amor sem juízo (ôoo) D A Am D O meu amor sem juízo Solo G Bm C D G Bm C D G Bm C D G Bm C
Tab - Solo 

E|--------------------------------------------| 
B|----------------3-3-3-3-3--1--0-----0-------| 
G|-0---2--4--0---------------------2-----0----| 
D|---0-------------------------------------0--| 
A|--------------------------------------------| 
E|--------------------------------------------|
E|--------------------------------------------| 
B|----------------3-3-3-3-3--1--0-----0----3--| 
G|-0---2--4--0---------------------2-----0----| 
D|---0----------------------------------------| 
A|--------------------------------------------| 
E|--------------------------------------------|
C Quero ouvir de novo o som da tua voz D/C Temos tantas coisas pra falar de nós Bm Em Porque a saudade dói demais assim C G/B Am Am/G D/F# D Se eu pudesse ter você comigo aqui Am C D E Pra sentir as mesmas coisas que eu senti A Bm Nós já brigamos demais A/C# D E a sua falta me faz Bm Bm/A E/G# E Na solidão procurar teu sorriso A Bm Eu ja cansei de sofrer A/C# D Bm Por isso tente entender Bm Bm/A E O meu amor sem juízo (ôoo) A Bm Nós já brigamos demais A/C# D E a sua falta me faz Bm Bm/A E/G# E Na solidão procurar teu sorriso A Bm Eu ja cansei de sofrer A/C# D Bm Por isso tente entender Bm Bm/A E O meu amor sem juízo (ôoo) A Bm Nós já brigamos demais A/C# D E a sua falta me faz Bm Bm/A E/G# E Na solidão procurar teu sorriso A Bm Eu ja cansei de sofrer A/C# D Bm Por isso tente entender Bm Bm/A E O meu amor sem juízo

roll up this ad to continue

share this page

See Also: