E-Chords
Enrique Iglesias

Bailando(Chords)

Enrique Iglesias

roll up this ad to continue

Watch the video lesson
Key: Em
Instrumento: Cavaco ou Banjo  

Introdução - Tablatura (Solo):   

  
		  1ª						   2ª  
(--0-2-3-2-0-3------2)    (--0-2-3-2-0-3-------0-----------3-2-3-2--)  
(-------------------------------------)    (--------------3-3-3---3-3-0-3-3----------)  
(-------------------------------------)    (-----------------------------------------)  
(-------------------------------------)    (-----------------------------------------)  
		  3ª					          4ª  
(--3-5-7-5-3-7-----5-5----7----5-3-3--)    (--8-8-8-0-8-0-8----7-7-------------------)  
(--5-7-8-7-5-8-----7-7)    (--8-8-8-8-8-8----------------------------)  
(-------------------------------------)    (-------------------7-7-7-7---------------)  
(-------------------------------------)    (-----------------------9-9---------------)  
		  5ª  
(--8-8-7-7-5-5--------3-3-------------)  
(--0-0-8-8-7-7--------3-3-3-3---------)  
(-------------------------2-2---------)  
(-------------------------------------) 
Em C yo te miro, se me corta la respiración G D cuanto tu me miras se me sube el corazón (bate bem mais forte o coração) Em C y en silencio tu mirada dice mil palabras G D la noche en la que te suplico que no salga el sol Am C ** {bailando,(bailando), bailando,(bailando)} Em D Tu cuerpo y el mío llenando el vacío, Subiendo y bajando(subiendo y bajando) Am C {bailando,(bailando), bailando,(bailando)} Em D Ese fuego por dentro me esta enloqueciendo Me va saturando Em con tu física y tu química también tu anatomia C la cerveza y el tequila y tu boca con la mia G D ya no puedo más (não aguento mais) ya no puedo más (não aguento mais) Em a nossa melodia tem calor tem fantasia C até filosofia é desejo que vicia G não aguento mais (ya no puedo más) D não aguento mais (ya no puedo más) Em yo quiero estar contigo, vivir contigo C bailar contigo, tener contigo G una noche loca (una noche loca) D ay besar tu boca (y besar tu boca) Em eu quero estar contigo, sorrir contigo C dançar contigo, viver contigo G D uma noite louca, tão tremenda e louca Em C G D (ooooh, ooooh, ooooh, ooooh) Em C tu me miras y me llevas a otra dimensión (me leva a outra dimensão) G D tu latidos aceleran a mi corazón (o seu brilho acelera o meu coração) Em C que ironia do destino não poder tocar você G D abrazarte y sentir la magia de tu olor Repete: Am C ** {bailando,(bailando), bailando,(bailando)} Em C G D ooooh, ooooh, ooooh, ooooh Em C G D ooooh, ooooh, ooooh, ooooh Em C ooooh, bailando amor, G D ooooh, bailando amor, Em C G D ooooh es que se me va el dolor Em (ooooh)
share this page

See Also: