Emil Bulls

These Are The Days (Acoustic)(Chords)

Emil Bulls

Key: C#m

roll up this ad to continue

	        
Verse Riff: 
E--------------------------------------------------| 
B----------------7---------------------------------| 
G--------------6-----------------------------------| 
D-------2?-4/6-------------------------------------| 
A---2/4--------------------------------------------| 
E--------------------------------------------------| 
Pre-Chorus Riff:
E---12-x16---7-x8---7-x8-----12-x8---7-x8---12-x8---7-x8-------| 
B---14-------9------7--------14------9------14------9----------| 
G--------------------------------------------------------------| 
D-------?------------------------------------------------------| 
A--------------------------------------------------------------| 
E--------------------------------------------------------------| 
Interlude Riff:
E-------------------------------------------------| 
B-------------------------------------------------| 
G---6--------8--------9-------11------13----------| 
D---x-x16----x?x16----x-x8----x--x8---x--x16------| 
A---4--------6--------7-------9-------11----------| 
E-------------------------------------------------| 



E---------------------------------------------------------------| 
B-------------{-}-<..-x15---------------------------------------| 
G---6--------4-6--------5-------8-------9-------8-------6-------| 
D---x-x16----x?x-x15----x-x8----x-x8----x-x8----x-x8----x-------| 
A---4--------2-4--------3-------6-------7-------6-------4-------| 
E---------------------------------------------------------------| 


Riff im letzten Verse: 1. Gitarre:
E---12-x16---7-x8---7-x8-----12-x8---7-x8---12-x8---7-x8-------| 
B---14-------9------7--------14------9------14------9----------| 
G--------------------------------------------------------------| 
D-------?------------------------------------------------------| 
A--------------------------------------------------------------| 
E--------------------------------------------------------------| 

2. Gitarre: 
E-------4-----4-----------2-----2-----------0-----0-----------0-----0------| 
B-----5---5-----5-------4---4-----4-------2---2-----2-------2---2-----2----| 
G---6-------6---------4-------4---------2-------2---------2-------2--------| 
D-------?------------------------------------------------------------------| 
A--------------------------------------------------------------------------| 
E--------------------------------------------------------------------------| 
Outro Riff:
 
E----------------------------------------------------------------------| 
B----------------------------------------------------------------------| 
G---13-13-13-13-13--13-13-13-13-13--13-13-13-13-13--13-13-13-13-13-----| 
D---x--x--x?-x--x---x--x--x--x--x---x--x--x--x--x---x--x--x--x--x------| 
A---11-11-11-11-11--11-11-11-11-11--11-11-11-11-11--11-11-11-11-11-----| 
E----------------------------------------------------------------------| 
C#m When the moon and I are talking Down by the riverside The old man and me alone When I hear the gentle whistling From the whirlwind in the trees And the scent of the summer feels so intense C#m B Abm A These are the days I remember you Singing our songs to me C#m A Oh these are the days Abm C#m I remember you E A Celebrating life Abm E Like the world was yours C#m When the walls come tumbling down A And I?m feeling down and out C#m A F#m I just open up a sixpack of memories Cm I light a cigarette grab my best friend jack and C#m A F#m Lose myself in the warm distortion that?s on my stereo C#m B Abm A These are the days I remember you Singing our songs to me C#m A Oh these are the days Abm C#m I remember you E A Celebrating life Abm E Like the world was yours >>>Interlude Riff<<< I?m floating C#m B A I?m floating home to you C#m B My wooden verb heartbeat gives me the creeps A Tonight I?m coming home to you C#m A Oh these are the days Abm C#m I remember you E A Celebrating life Abm E Like the world was yours C#m A Oh these are the days Abm C#m I remember you E A Celebrating life Abm E Like the world was yours

Written by Emil Bulls

See Also: