E-Chords
Emery

The Secret(Chords)

Emery

Key: B5
Por: Philippe MeketreFe ( [email protected] ) 

Intro: 
 
e|--------------------------------------------------------| 
B|--------------------------------------------------------| 
G|--------------------------------------------------------| 
D|---8---8---8---8---8---8---6---6---6---6---6---6---6----| 
A|--------------------------------------------------------| 
E|-7---7---7---7---7---7---7---7---7---7---7---7---7------| 

e|--------------------------------------------------------| 
B|--------------------------------------------------------| 
G|--------------------------------------------------------| 
D|---6---6---6---6---6---6--------------------------------| 
A|---------------------------9---9---9---9---9---9--------| 
E|-6---6---6---6---6---6---6---6---6---6---6---6---6------| 
B5 / A#5 / G#5 / F#5 / F5 D#5 / C#5 ( 2x ) D#5 A#5 On the way to grey, D#5 I could hardly wait A#5 To see you again... D#5 To feel your hands... C#5 Covering me B5 until the storm is done A#5 What seemed to be the end Was not the end at all D#5 / C#5 ( 2x ) A#5 When i hear the rain G#5 Should i be afraid F#5 F5 For my, for my F#5 For my life... D#5 / C#5 ( 2x )
D#5 A#5 Why do you look at me that way? D#5 I told you A#5 That i was too busy to see you D#5 I would never A#5 Keep a secret from you D#5 / C#5 From you D#5 / C#5
B5 / A#5 / G#5 / F#5 / F5 / F#5 / G#5 D#5 C#5 Is it over? B5 I am fine A#5 Thank you dearly D#5 For your time C#5 I'll be leaving B5 Don't you cry A#5 I'll be back soon D#5 Please don't try C#5 Can't you see? B5 A#5 D#5 There is no time to think selfishlly C#5 Yesterday's gone B5 Tomorrow's here A#5 Can't turn back now D#5 I won't quit C#5 I still love you B5 I swear A#5 I always will D#5 / C#5 / B5 / A#5 .............. I always will D#5 / C#5 / B5 / A#5 .............. I always... F#5 / D#5 / F#5 / D#5 will.. F#5 FIM. Cifrada por: Philippe MeketreFe { BANDA EMBLEMA } ( [email protected] )

roll up this ad to continue

share this page

See Also: