Elvis Presley

(There Will Be) Peace in the Valley (for Me)(Chords)

Elvis Presley

Key: C

roll up this ad to continue

	        
Intro:
 
e||--------------------------|---------------------------| 
B||--5----6----7----8--------|--8--------8----9----10\---| 
G||--------------------------|---------------------------| 
D||--------------------------|---------------------------| 
A||--------------------------|---------------------------| 
E||--------------------------|---------------------------| 
 
e||--------------------------|--------------------------| 
B||--------------------------|--------------------------| 
G||--7--------7----8----9\---|--5-----------------------| 
D||--------------------------|-----------5----5/---7----| 
A||--------------------------|--------------------------| 
E||--------------------------|--------------------------| 
 
e||-----------------------------|| 
B||-----------------------------|| 
G||--5--------------------------|| 
D||-----------7\-------5--------|| 
A||-----------------------------|| 
E||-----------------------------|| 
(N.C) C Oh well, Im tired and so weary F C But I must go alone C D7 G G7 Till the lord comes and calls, calls me away, oh yes C Well the morning's so bright F C And the lamp is alight C D7 G G7 And the night, night is as black as the sea, oh yes F C There will be peace in the valley for me, some day C D7 G There will be peace in the valley for me, oh Lord I G7 pray C C7 There'll be no sadness, no sorrow F D7 No trouble, trouble I see C D7 G7 C F C There will be peace in the valley for me, for me Well the bear will be gentle And the wolves will be tame And the lion shall lay down by the lamb, oh yes And the beasts from the wild Shall be lit by a child And I'll be changed, changed from this creature that I am, oh yes There will be peace in the valley for me, some day There will be peace in the valley for me, oh Lord I pray There'll be no sadness, no sorrow No trouble, trouble I see There will be peace in the valley for me, for me

Written by Rev

See Also: