E-Chords
Elefante

Vamos(Chords)

Elefante

roll up this ad to continue

Key: Dm
Transcrita por Kaleb Encorrada 

Una disculpa a todos, el la version pasada que subi, habia un pequeño error en la  
segunda parte el Riff 2, aqui ya esta corregida, gracias 

Riff 1 
e|-------------------------------------------------------|------------------------| 
B|-------------------------------------------------------|------------------------| 
G|-------------------------------------------------------|------------------------| 
D|------7-7-7-7-5-7-7-7-7/9-9-10-10-10-10-10-9-9-9-9-7-5-|--7-7-7-7-5-7-7-7-7-7-9-| 
A|-------------------------------------------------------|------------------------| 
E|-10/5--------------------------------------------------|------------------------| 


Riff 2 
e|-----------------------------------------|------------------------| 
B|-----------------------------------------|------------------------| 
G|-----------------------------------------|------------------------| 
D|-----------------------------------------|------------------------| 
A|-5-5-5-5-5-0-0-0-0-2-3-3-3-3-3-2-2-2-2-3-|--5-5-5-5-5-0-0-0-0-0-2-| 
E|-----------------------------------------|------------------------| 


Riff 3 
e|---7---7-----5---5-----3---3---3---3---3--3--| 
B|------------------------------------------0--| 
G|------------------------------------------0--| 
D|-5---5---5-7---7---7----------------------0--| 
A|---------------------3---3---3---3---3----2--| 
E|------------------------------------------3--|
Intro Dm Am C G (Riff1) Dm Am C G Dm Am G G F Sabes, que no te digo mentiras, que esta vez sobra C G La tinta y el papel, en nuestras vidas G F Sabes que en el amor no hay medidas C G Y que las reglas a veces suelen ser, tu pesadilla (Riff 2) Dm Am C G Tu peor enemigo, el mas aburrido y cruel disfraz Dm Am G FC Un salto al vacio, el veneno mas letal CORO G F Vamos a buscarle tres pies al gato C G A probarnos otros zapatos F A jugar con la realidad G F Vamos a cortarle peras al olmo C G F No arriesgarse seria el colmo, un insulto a la libertad (Riff 3)G A C G F Sabes que el mundo es una quimera C G Que puedes ir donde quieras y volver, si lo deseas G F Sabes que Dios nos puso en la vida C G Que todo es cosa de abrir el corazon sin medida (Riff 2) Dm Am C G Sin juramentos, solo diciendo la verdad Dm Am G FC Sin tanto cuento, con el alma y nada mas CORO G F Vamos a buscarle tres pies al gato C G A probarnos otros zapatos F A jugar con la realidad G F Vamos a cortarle peras al olmo C G F No arriesgarse seria el colmo, un insulto a la libertad
Riff 1 (lleva una variacion en la segunda parte) 
e|-----------------------| 
B|-----------------------| 
G|-----------------------| 
D|-7-7-7-7-5-7-7-7-7-7/9-| 
A|-----------------------| 
E|-----------------------|
G F Vamos, de prisa vamos Am G Sin miedo vamos, ALALALA YEAH... G F Am G Vamos, sin dudas vamos, arriba vamos ALALALA YEAH YEAH YEAH YEAH YEAH...
Outro 
Este es parecido al Riff 3 
e|---7---7-----5---5-----3---3-----7---7-------| 
B|---------------------------------------------| 
G|---------------------------------------------| 
D|-5---5---5-7---7---7-----------5---5---5-----| 
A|---------------------3---3---3---------------| 
E|---------------------------------------------| 

e|---7---7-----5---5-----3---3---3---3---3--3--| 
B|------------------------------------------0--| 
G|------------------------------------------0--| 
D|-5---5---5-7---7---7----------------------0--| 
A|---------------------3---3---3---3---3----2--| 
E|------------------------------------------3--|
share this page

See Also: