E-Chords
Elefante

Sin Pedirte Cuentas(Chords)

Elefante

roll up this ad to continue

Key: Bm
Intro 
e---------------------------------------I 
b---------------------------------------I 
g-----7--6--4--6--4----------4--6--7--4-I  
d--4------------------4--7--------------I 
a---------------------------------------I 
e---------------------------------------I 

e---------------------------------------I 
b---------------------------------------I 
g-----7--6--4--6--4----------4--6--7--4-I  
d--4------------------4--7--------------I 
a---------------------------------------I 
e---------------------------------------I 

e---------------------------------------I 
b---------------------------------------I 
g-----7--6--4--6--4----------4--6--7----I  
d--4------------------4--7--------------I 
a---------------------------------------I 
e---------------------------------------I 

e---------------------------------------I 
b---------------------------------------I 
g--4--7--4--7--4--7--4--7--4--6---------I 
d---------------------------------------I X2 
a---------------------------------------I 
e---------------------------------------I
Acordes a Usar: Bm , A , F#m , A Bm A F#m A Para que seguir perdiendo en este laberinto , Bm A F#m A para que perder el tiempo siempre con lo mismo Bm A F#m A para que seguir alimentando mis fantasmas; Bm A que siempre acechan y se van F#m A robando un trozo de mi calma, Bm A alimentando mi ansiedad. (Igual que la primera) Para que vivir al borde de este precipicio, para que entregar el alma siempre a un espejismo, para que mirar la Luna cuando no te aman; De que me sirve darte mas, si me has robado la esperanza, y hasta las ganas de soñar. Coro De nada me sirve estar contigo sintiendome solo y perseguido, de nada me sirven tus palabras que no dicen nada. De nada me sirve una salida si te has adueñado de mi vida, de nada me sirve esta batalla. Para que seguir flotando sobre tus promesas, para que decirte mas si nada te interesa, para que ser enemigos en la misma cama; De que me sirve la verdad si tus mentiras me desarman, estoy cansado de luchar. Denada me sirve estar contigo... Ojala les sirva de algo , cualquier duda , pregunta o sugerencia me escriben al mail. [email protected] si quieren saber el orden de los acordes en la cancion me lo dicen . Gracias . Un Saludo a Saes Guido , Ricardo Rodriguez , Jeremy Carlo Roberto Ramirez , y mi Madre y mi Padre ellos son mis maestros. Y a ti (S) te amo.
share this page

See Also: