E-Chords
Elefante

Si Tu Quieres(Chords)

Elefante

roll up this ad to continue

Key: G
Que onda aqui esta la transcripcion de esta rola que para mi 
es la mejor del disco, saludos a toda la banda de electrónica 
del Tec Tuxtla, esta canción va dedicada especialmente para 
Patricia de los Angeles (Angy), ojala y me dieras una oportunidad 
Me encantas niña preciosa..........espero que les guste. 


Aqui se rasguea quitando y poniendo el dedo en la 2a cuerda. 

G*: 

E-3-3--3-3--| 
A-2-2--2-2--| 
D-----------| 
G-----------| 
B---3-----3-| 
e-3-3--3--3-| 




INTRO: 

  G                 Dm7                 C                     G 

E-3--------------------------------3--------------------3----------------| 
A-2--------------------------------3--------------------3----------------| 
D-0--------------0-----------------2--------2-------2---0------0----0----| 
G-0-0---0---0--0-2---2---2---2-----0--0---0---0---0---0-0-0---0-0--0--0--| 
B-3---3---3--3---3-----3---3-----3-1----1-------1-------0---0-----0------| 
e-3--------------0/1-----------0---0--------------------3----------------| 



  G                  Dm 

E-3--------------------------------3---------------------3---------------| 
A-2--------------------------------3---------------------3---------------| 
D-0-------0------0---0-------------2--------2--------2---0------0----0---| 
G-0-0---0---0--0--0--2------2------0--0---0---0----0---0-0-0---0-0--0--0-| 
B-3---3------3-------3-3--3--3-3---1----1-------1--------0---0-----0-----| 
e-3------------------1--1-----1----0---------------------3---------------|
**En el primer verso se repite el intro, o se rasguean los acordes como prefieras. G* F TE REGALO LAS ESTRELLAS C TE REGALO LO QUE QUIERAS G* TE DOY TODO LO QUE SOY G* F SOLO DAME UNA SONRISA C SOLO DAME LO QUE GUARDAS G* EN TU LOCO CORAZON Dm SI TU QUIERES Am TE CONVIDO DE MIS DIAS C Y TE INVITO A MI GUARIDA G* TE COMPONGO UNA CANCION F SI TU QUIERES Am CAMINAMOS POR LA VIDA C NOS CURAMOS LAS HERIDAS G* NOS BEBEMOS EL DOLOR Am Y NADA ME PUEDE PASAR D CON TODO LO QUE TU ME DAS G* Y TODO PUEDE SUCEDER C SI ME BESARAS OTRA VEZ Am Y NO TE PIDO NADA MAS D QUE LO QUE TU ME QUIERAS DAR C EL CIELO CONOCI Am Y EN EL CIELO QUIERO VIVIR G* F TE REGALO MIS MAÑANAS C TE REGALO MIS PALABRAS G* TE DOY TODO HASTA MI VOZ G* F SOLO DAME TU MIRADA C SOLO DAME LO QUE ESCONDES G* DENTRO DES ESTE CORAZON Dm SI TU QUIERES Am TE CONVIDO DE MIS DIAS C Y TE INVITO A MI GUARIDA G* TE REGALO ESTA CANCION F SI TU QUIERES Am CAMINAMOS POR LA VIDA C NOS CURAMOS LAS HERIDAS G* NOS BEBEMOS EL DOLOR Am Y NADA ME PUEDE PASAR D CON TODO LO QUE TU ME DAS G* Y TODO PUEDE SUCEDER C SI ME BESARAS OTRA VEZ Am Y NO TE PIDO NADA MAS D QUE LO QUE ME QUIERAS DAR
SOLO: 

  E----------------------------------------------------------| 
  A--------------------------------------5/7------7----------| 
  D-7/9-------9-----------9-----9--7?7/5-----5-7-5----5-7/9--| 
  G-----7-9-7---7/9--9/7-----7-------------------------------| 
  B----------------------------------------------------------| 
  e----------------------------------------------------------| 


  E-------------------------------------------| 
  A-------------------------------------------| 
  D-------------------------------------------| 
  G--7--9-9/12---12-12-11-11------------------| 
  B--------------------------10/12--10--10/12-| 
  e-------------------------------------------| 


  E------------------------------------------------------| 
  A------------------------------------------------------| 
  D-----7-9-7---7/9--9/7-----7---------------------------| 
  G--/9-------9-----------9-----9--7?7/5-------5-7-5---5-| 
  B----------------------------------------5/7-------7---| 
  e------------------------------------------------------|
Am - C - G* - Bm - C - Am - D G* Am Y NADA ME PUDE PASAR D CON TODO LO QUE TU ME DAS G* Y TODO PUEDE SUCEDER C SI ME BESARAS OTRA VEZ Am Y NO TE PIDO NADA MAS D QUE LO QUE TU ME QUIERAS DAR Bm E A Bm Y NADA ME PUEDE PASAR E CON TODO LO QUE TU ME DAS A Y TODO PUEDE SUCEDER D SI ME BESARAS OTRA VEZ Bm Y NO TE PIDO NADAMAS E QUE LO QUE TU ME QUIERAS DAR D EL CIELO CONOCI Bm E Y EN EL CIELO QUIERO MORIR D-A-D-A-D-A
share this page

See Also: