E-Chords
Elefante

Lo Que Andábamos Buscando(Chords)

Elefante

roll up this ad to continue

Key: Am
Transcrita por Kaleb Encorrada 

/ = Slide up 

Hola a todos! Aqui estoy de nuevo, colaborando con otra  
tablatura de Elefante. Esta version esta correcta en cuanto a  
la tablatura y los acordes, ya que la otra no esta en el tono  
que es la cancion. Espero la disfruten y les sirva, gracias a  
las personas que me escriben requiriendo tablaturas y a ATAME  
por darme la oportunidad de publicar mis tablaturas en su  
pagina. SALUDOS a la banda!! 

INTRO 
e|--0--0-0-2/3-3-3-0--0-0-3-3-3------3/5-5-5-3-3----------------| 
B|------------------------------3----------------6-6-5-5-3-3-1--| 
G|-0--0-0-4/5-5-5-0--0-0-5-5-5------5/7-7-7-5-5-----------------|	x2 
D|-----------------------------5----------------7-7-7-7-5-5-2---| 
A|--------------------------------------------------------------| 
E|--------------------------------------------------------------|
Am C No conoce las fronteras Em Dm y se mete donde sea C G vaga por cualquier lugar Am C Anda por las azoteas Em Dm por los bares, las iglesias C C G Siempre busca alguna puerta para entrar Am C No permitas que la vida lo haga a un lado Em Dm que se te pase de largo C G ni lo dejes olvidado en un rincón Am C No permitas que el silencio te separe Em Dm de sus besos, de sus brazos C G sólo deja que te toque el corazón CORO Am Llevalo contigo G Sientate a su lado F Que el amor es justo G Am Lo que andábamos buscando Am Llevalo contigo G Tomalo del brazo F Que el amor es todo G Am por lo que sigo sońando
SOLO 
e|--5-5-7-5---0--0-0-2/3-3-3-0--0-0-3-3-3------3/5-5-5-3-3----------------| 
B|----------------------------------------3----------------6-6-5-5-3-3-1--| 
G|-5-5-7-5---0--0-0-4/5-5-5-0--0-0-5-5-5------5/7-7-7-5-5-----------------| 
D|---------------------------------------5----------------7-7-7-7-5-5-2---| 
A|------------------------------------------------------------------------| 
E|------------------------------------------------------------------------|
Am C Vive en todas las estrellas Em Dm en tus calles se pasea C G y jamás lo detendrán Am C Por el cielo y por la tierra Em Dm en tus sueńos, en tu mesa C C G Si lo encuentras no lo dejes escapar Am C No permitas que el silencio te separe Em Dm de sus besos, de sus brazos C G sólo deja que te toque el corazón CORO
OUTRO 
             Am 
 Llevalo contigo 
e|--0-0-0-1-0--| 
B|-------------| 
G|-0-0-0-2-0---| 
              G 
 Tomalo del brazo 
e|---------0-----| 
B|--3-3-3-----3--| 
G|--------0------| 
D|-5-5-5-----5---| 
                 F 
 Que el amor es todo 
          G         Am 
 por lo que sigo sońando.... 

e|--3/5-5-5-3-3-3-------------| 
B|----------------6-6-6-5-3-1-| 
G|-5/7-7-7-5-5-5--------------| 
D|---------------7-7-7-7-5-2--| 
A|----------------------------| 
E|----------------------------|
share this page

See Also: