E-Chords
Elefante

Fugitivo(Chords)

Elefante

roll up this ad to continue

Key: Gm
Hola, antes que nada; aqui les tengo la versión original del disco.  
Para ello nesecitarán un capo en el 1er traste. Bueno comencemos  
con la rola... 

NOTA: Es necesario e importante tomar en cuenta que con el capo,  
      el primer traste sería originalmente el segundo. 
      Si no tomas en cuenta la nota anterior, la canción quedará  
      un tono abajo de la original. 

INTRO: 

  Gm                    Cm7                   D7 
------------------------------------------------------------- 
----------------------------------------------------1-------- 
----3-2-0------3-2-0------0----------0------------2---3-2-3-- 
--0-------0--0-------0--0---3-1----0---3-1----0-4------------ 
--------------------------------3----------3----------------- 
------------------------------------------------------------- 

  Gm                    Cm7                   D7 
------------------------------------------------------------- 
------------------------------------------------------------- 
----3-2-0------3-2-0------0----------0----------------------- 
--0-------0--0-------0--0---3-1----0---3-1----1---1-0-------- 
--------------------------------3----------3----3-----0-1---- 
----------------------------------------------------------3--
Gm Cm7 F A# A la luz de la pálida luna, una pena te vengo a causar Gm Cm7 D# D7 porque se que yo soy tu fortuna, y que al irme tendras que llorar Gm Cm7 F A# yo no sé como voy a olvidarte, solo sé que asi tiene que ser Gm Cm7 D# D7 y aunque digas que soy un cobarde, ya la vida te hará comprender CORO: A# F Cm7 D7 es igual pa los dos el castigo, sentiremos el mismo dolor A# F Cm7 D7 llevaré tu recuerdo conmigo, dejaré como adios mi canción Cm7 d7 Cm7 D7 porque soy y seré para siempre, porque soy y seré para siempre Gm fugitivo...
  Gm                   Cm7                    D7 
------------------------------------------------------------- 
------------------------------------------------------------- 
----3-2-0------3-2-0------0----------0----------------------- 
--0-------0--0-------0--0---3-1----0---3-1----1---1-0-------- 
--------------------------------3----------3----3-----0-1---- 
----------------------------------------------------------3--
Gm Cm7 F A# si al pensar en las noches aquellas, me quisieras salir a buscar Gm Cm7 D# D7 toma en cuenta que no dejo huella, que soy un perdido que no has de encontrar Gm Cm7 F A# siente alivio sabiendo que sufro, siente dicha pensando en que yo Gm Cm7 D# D7 en cualquier rinconcito del mundo, estaré recordando tu amor CORO: A# F Cm7 D7 es igual pa los dos el castigo, sentiremos el mismo dolor A# F Cm7 D7 llevaré tu recuerdo conmigo, dejaré como adios mi canción Cm7 d7 Cm7 D7 porque soy y seré para siempre, porque soy y seré para siempre Gm fugitivo... (a partir de aquí, el ritmo de la canción cambia bruscamente a ranchera lenta) PUENTE: Gm - Cm7 - D7 - Gm - Gm - Cm7 - D# - D7 A# F Cm7 D7 No preguntes porque me despido, si no quieres oirme mentir A# F Cm7 D7 yo se bien vida mía lo que digo, nuestras vidas jamas se han de unir (cambia el rasgueo por el anterior) Cm7 D7 Cm7 D7 porque soy y seré para siempre, porque soy y seré para siempre Cm7 D7 Gm porque soy y seré para siempre, fugitivo. Gracias por su atención, cualquier duda, sugerencia o reclamación escribanme a [email protected] NOS VEMOS PRONTO!!!
share this page

See Also: