E-Chords
Elefante

Dejate Llevar(Chords)

Elefante

roll up this ad to continue

Key: F
Intro. 

(rif 1) 
e--------------------------------------------------------------------- 
b -------------------------------------------------------------------- 
g --------------------------------------------------------------------          (x2) 
D ------------------------------------------------------------------- 
A --2---3---2---3---5---7---7--2---3---2---3---5---7---7  8--- 
E -------------------------------------------------------------------- 

(rif 2) 
e-------0---1---3----5-----0---1---3----5-----0---1---3----5----0---1---3----5-- 
b ---3-------------------3--------------------3-------------------3------------------- 
g -------------------------------------------------------------------------------------- 
D ------------------------------------------------------------------------------------- 
A ------------------------------------------------------------------------------------- 
E -------------------------------------------------------------------------------------- 

(rif 1) 
e--------------------------------------------------------------------- 
b -------------------------------------------------------------------- 
g --------------------------------------------------------------------			(x 1) 
D ------------------------------------------------------------------- 
A --2---3---2---3---5---7---7--2---3---2---3---5---7---7  8--- 
E --------------------------------------------------------------------
F Al final no queda nada Dm G Y al llegar la madrugada, te buscare Am F Deja que tus sueños vuelen (rif 1) (x1) F El tiempo va no se detiene Dm G Para aceptar lo que se tiene, te extrañare Am F C G Déjame invadir tu espacio, déjate seguir Coro: Em F C Para llevarte a las estrellas Em F C Para llegar a donde quieras Em F C Para tomarte prisionera Dm F Y así tener tu voz Dm G Bailando en mi cabeza Dm F Bailando en mi cabeza (rif 1) F Y que más da otra mañana Dm G Al despertar por la ventana, te buscare Am F Que con la lluvia el sol se muere F El tiempo va no se detiene Dm G Y aceptar no es suficiente, te extrañare Am F C G Déjame invadir tu espacio déjate seguir. Coro: Em F C Para llevarte a las estrellas Em F C Para llegar a donde quieras Em F C Para tomarte prisionera Dm F Y así sentir tu voz Dm G Bailando en mi cabeza Dm F Bailando en mi cabeza (rif 2) (x3) (rif 1) (x1) Coro: Em F C Para llevarte a las estrellas Em F C Para llegar a donde quieras Em F C Para tomarte prisionera Dm F Y así sentir tu voz Dm G Bailando en mi cabeza Dm F Bailando en mi cabeza (rif 1) (x2) Fin?
share this page

See Also: