E-Chords
Elefante

De La Noche A La Maana(Chords)

Elefante

roll up this ad to continue

Key: Dm
Esta es la tab completa y correcta de la canción. 


e|-------1-0------------3--5--3-------3---1---0--0-1-0----| 
b|-----3-----3--------3---------3---3---3---1-------------| 
g|---2---------2----0-------------------------------------| 
d|-0------------------------------------------------------| 
a|--------------------------------------------------------| 
E|----------------3---------------------------------------| 



e|-------1-0------------3--5--3--------10------8-----6---6---5| 
b|-----3-----3--------3---------3---11-----10-----8--------8--| 
g|---2---------2----0-----------------------------------------| 
d|-0----------------------------------------------------------| 
a|------------------------------------------------------------| 
E|----------------3-------------------------------------------| 



Empieza la cancion y va el siguiene riff durante el primer verso 


e|----------------------------------------------------------| 
b|1h3--1--1h3--1--1h3--1--1h3--1--1h3--3--1---1-1h3-1-1h3---| 
g|----------------------------------------------------------| 
d|----------------------------------------------------------| 
a|----------------------------------------------------------| 
E|----------------------------------------------------------| 
1er verso Dm Me despierta el corazon en la mañana G Puedo ver salir el sol en su mirada A# C Dm Todo puede suceder cuando se ama
Va el siguiente riff durante el 2do verso 


e|----------------------------------------------------------| 
b|1h3--1--1h3--1--1h3--1--1h3--1--1h3-3--1------------------| 
g|----------------------------------------------------------| 
d|----------------------------------------------------------| 
a|----------------------------------------------------------| 
E|----------------------------------------------------------| 




e|-1-----3-----1--------1-3---1-----3----1------------------| 
b|---3-----3-----3----3--3------3-----3---3-3s5-------------| 
g|----------------------------------------------------------| 
d|----------------------------------------------------------| 
a|----------------------------------------------------------| 
E|----------------------------------------------------------| 
2do verso Dm El amor sabe mejor sobre la cama G Pero se te apága el sol cuando se marcha A# C Dm Y cuelgas los ojos en la ventana A# C Y vives de a poco
Dm Y se detiene el tiempo en tu cara G Y se te acaba el cuento de adas A# Y se te mueve el piso , C Dm El cielo , y no sabes ni como te llamas Dm Y sientes que la virgen te habla G Sientes que le silencio te embriaga A# C Y quieres gritar y gritar y gritar Dm Y no encuentras palabras A# C Dm Y cuelgas los ojos de la ventana
e|-10p8-----10----------------------------------------------| 
b|-------11----10-------------------------------------------| 
g|----------------------------------------------------------| 
d|----------------------------------------------------------| 
a|----------------------------------------------------------| 
E|----------------------------------------------------------| 


   A# 	       C 
Y vives de a poco 


e|------------------------------------------| 
b|------------------------------------------| 
g|------------------------------------------| 
d|------------------------------------------| 
a|----3--5----3--5---3--5----3--5-----3--5--| 
E|--5-------5------5-------5-------5--------| 



e|---------------------------| 
b|---------------------------| 
g|---------------------------| 
d|-----2---------------------| 
a|---3------5--3--5-----3--5-| 
E|-5-----------------5-------| 



va el siguiente riff durante el 3er verso 



e|--------------------------------------------------------------------| 
b|1h3--1--1h3--1--1h3--1--1h3--1--1h3---3--1---1-1h3--1-1-3---1-1-3---| 
g|--------------------------------------------------------------------| 
d|--------------------------------------------------------------------| 
a|--------------------------------------------------------------------| 
E|--------------------------------------------------------------------| 
3er verso Dm Me desvela el corazon la muy ingrata G Ya no se ni donde estoy, ni lo que pasa A# C Dm Algo puede suceder si regresara
va el siguiente riff durante el 4to verso 


e|-------------------------------------------------------------------| 
b|1h3--1--1h3--1--1h3--1--1h3--1--1h3---3--1---1-1h3--1-3-1---1-3-1--| 
g|-------------------------------------------------------------------| 
d|-------------------------------------------------------------------| 
a|-------------------------------------------------------------------| 
E|-------------------------------------------------------------------| 
4to verso Dm Todo tiene solucion solo en su cama G Pero se te apaga el sol cuando se marcha A# C Dm Y cuelgas los ojos en la ventana oh eh¡¡ A# C Y Mueres de a poco
Dm Y se detiene el tiempo en tu cara G Y se te acaba el cuento de adas A# Y se te mueve el piso, C Dm El cielo y no sabes ni como te llamas Dm Y sientes que la virgen te habla (aqui acomoden el ritmo con la canción)
e|10--10--10-10-10-10---10-10---10-10--12-12--12-12-12-13-13----12-13-12---| 
b|-------------------------------------------------------------------------| 
g|-------------------------------------------------------------------------| 
d|-------------------------------------------------------------------------| 
a|-------------------------------------------------------------------------| 
E|-------------------------------------------------------------------------| 




e|--10--10--10-10-10-------------------10-10----------------| 
b|--------------------13--13-13-13-13-----------------------| 
g|----------------------------------------------------------| 
d|----------------------------------------------------------| 
a|----------------------------------------------------------| 
E|----------------------------------------------------------| 




e|--10-10--10--10-10-10--10-10-10---------------------------| 
b|----------------------------------------------------------| 
g|----------------------------------------------------------| 
d|----------------------------------------------------------| 
a|----------------------------------------------------------| 
E|----------------------------------------------------------| 
G Sientes que le silencio te embriaga A# C Y quieres gritar y gritar y gritar Dm Y no encuentras palabras A# C Dm Y cuelgas lo ojos en la ventana
g|-------8-10-8---------------------------------------------| 
d|-8h10---------10p8----------------------------------------| 
g|----------------------------------------------------------| 
d|----------------------------------------------------------| 
a|-------------------10-------------------------------------| 
E|----------------------------------------------------------| 


    A#	       C 
Y mueres de a poco 

(armonica) 


e|-1---0-----------------0---1-1-1--0-1---0-1--1-1-0-| 
b|--------3----1----3--------------------------------| 
g|---------------------------------------------------| 



e|1-0-1-0-1-0-1-0----1---------1-0--1-0-1-------------------| 
b|----------------3----1-3-3--------------------------------| 
g|----------------------------------------------------------| 
d|----------------------------------------------------------| 
a|----------------------------------------------------------| 
E|----------------------------------------------------------| 
Dm Y se detiene el tiempo en tu cara G Y se te acaba el cuento de adas A# Y se te mueve el piso, C Dm El cielo y no sabes ni como te llamas Dm Y sientes que la virgen te habla
e|10--10--10-10-10-10---10-10---10-10--12-12--12-12-12-13-13----12-13-12---| 
b|-------------------------------------------------------------------------| 
g|-------------------------------------------------------------------------| 
d|-------------------------------------------------------------------------| 
a|-------------------------------------------------------------------------| 
E|-------------------------------------------------------------------------| 




e|--10--10--10-10-10----------------------------------------| 
b|--------------------13------------------------------------| 
g|----------------------------------------------------------| 
d|----------------------------------------------------------| 
a|----------------------------------------------------------| 
E|----------------------------------------------------------| 
G Sientes que le silencio te embriaga A# C Y quieres gritar y gritar y gritar
e|----------| 
b|----------| 
g|----------| 
d|----------| 
a|----3--5--| 
E|--5-------|
share this page

See Also: