E-Chords
Elefante

Asi Es La Vida(Chords)

Elefante

roll up this ad to continue

Key: Gm
|-----------3-5-3------3------2-----5----8----11-| 
|---------3------6-3---3-----1-----4----7----10--| 
|-------3-----------3--3----2-----5----8----11---| 
|-----5----------------5---1-----4----7----10----| 
|---5------------------5-------------------------| 
|-3--------------------3-------------------------| 

                          y que me traigan mas botellas    
|-----------3-5-3------3--------------------------------3-----| 
|---------3------6-3---3-------------------------------4-4-4--| 
|-------3-----------3--3------------------------------5---5---| 
|-----5----------------5-----------------------------5--------| 
|---5------------------5----------------------------3---------| 
|-3--------------------3--------------------------------------| 

    para quitarme este sabor de su sudor 
|-------------2-------2-------------3-5-3------3--| 
|----------1-----1------1---------3------6-3---3--| 
|-------2-----------2-----------3-----------3--3--| 
|----0------------------------5----------------5--| 
|-0-------------------------5------------------5--| 
|-------------------------3--------------------3--| 

  y que me apunten en la cuenta,              toda la desgracia que dejo 
|-----------------------------------3--------------0----0-------------------2| 
|---------------------------------4---4---4-------2--2----2----------------1-| 
|-------------------------------5-------5--------0-----0----0-------------2--| 
|-----------------------------5-----------------2------------------------0---| 
|---------------------------3------------------0-----------------------0-----| 
|----------------------------------------------------------------------------| 


|---------2-------4-------5-------| 
|---------------------------------| 
|----2-------4-------6------------| 
|---------------------------------| 
|---------------------------------| 
|---------------------------------|
Gm Cm/G D7/E Gm Que no quieres nada maa de mi Que te fuiste con ese infeliz Cm/G Que importa, Que importa; D7/E Que me va a matar la depresion Que voy a vFir en el alcohol Gm Que importa Que importa Gm Que te fuiste sin decir adios Que no dormiras en mi colchon Cm/G Que importa Que importa D7/E Que ensuciaste mi reputación Que te vale madres este amor Gm Que importa que importa Cm/G F Que te quise demasiado D7/E Y que nadie te ha querido como yo * Gm Asi es la Vida Cm/G De caprichosa, aveces negra, aveces color rosa F D7/E Asi es la vida, jacarandosa, te quita te pone te sube, te baja y aveces te lo da Asi es la vida Gm Asi es la Vida Cm/G De caprichosa, aveces negra, aveces color rosa F D7/E Asi es la vida, jacarandosa, te quita te pone te sube, te baja y aveces te lo da Asi es la vida
|-10-10-10-10--11-11--8--8--/-10-10--6-6-/-8--8---5-5-5-/-6-6-| 
|-11-11-11-11--11-11--10-10-/-11-11--8-8-/-10-10--6-6-6-/-8-8-| 
|-------------------------------------------------------------| 
|-------------------------------------------------------------| 
|-------------------------------------------------------------| 
|-------------------------------------------------------------| 


|-13-13-13-13-13-13-13-13-13-13---11-10-10/11-11-11-----------| 
|-------------------------------------------------------------| 
|-------------------------------------------------------------| 
|-------------------------------------------------------------| 
|-------------------------------------------------------------| 
|-------------------------------------------------------------| 

    
|-------------------13-13--------8-8------5-5-----------------| 
|-13-13-13-13-13-----------10-10------6-6---------------------| 
|-------------------------------------------------------------| 
|-------------------------------------------------------------| 
|-------------------------------------------------------------| 
|-------------------------------------------------------------| 


|-13--11--10---------------------11---------11-----10-11-10-8--6-5-3-| 
|-------------13--11--10---------------------------11-11-11-10-8-6-3-| 
|-------------------------12--11-----11--11-----11-------------------| 
|--------------------------------------------------------------------| 
|--------------------------------------------------------------------| 
|--------------------------------------------------------------------|
Gm Que me desangraste el corazón Que me hara justicia la razón Cm/G Que importa que importa D7/E Que tu vida es un carnaval Que tarde o temprano volveras Gm Que importa Que importa Cm/G F Que te quise demasiado D7/E Y que nadie te ha querido como yo * Gm Asi es la Vida Cm/G De caprichosa, aveces negra, aveces color rosa F D7/E Asi es la vida, jacarandosa, te quita te pone te sube, te baja y aveces te lo da Asi es la vida
|--------------------------------------------------------------| 
|--------------------------------------------------------------| 
|--------------------------------------------------------------| 
|-------10/12-10/12-12-12-10---------10-12-13--13-13-12-10-10--| 
|-13-13----------------------13---13---------------------------| 
|--------------------------------------------------------------| 


|-------------------------------------------------------------10--10-10------10| 
|10-11-13--11-11-11-10-10-10---------------------------10-11-13---------13-11--| 
|----------------------------12-12-12-10-10-10--10-10-12-----------------------| 
|------------------------------------------------------------------------------| 
|------------------------------------------------------------------------------| 
|------------------------------------------------------------------------------|
Gm Asi es la Vida Cm/G De caprichosa, aveces negra, aveces color rosa F D7/E Asi es la vida, jacarandosa, te quita te pone te sube, te baja y aveces te lo da Asi es la vida Escuchame negra Asi es la Vida Cm/G De caprichosa, aveces negra, aveces color rosa F D7/E Asi es la vida, jacarandosa, te quita te pone te sube, te baja y aveces te lo da Asi es la vida
share this page

See Also: