E-Chords
Electric Light Orchestra

Secret Messages(Chords)

Electric Light Orchestra

roll up this ad to continue

Key: Gm
Intro: 

Gm F Eb Dm Cm Dm Cm Dm  
Gm F Eb Dm Cm Dm Cm Dm 

This is played during the underlined part: 


E-----------------13-|-----------------13-|--8/10-10-10-10-11-11-8-8-8-10-8-8-| 
B-----------10-11----|-----------10-11----|-----------------------------------| 
G-----10-------------|-----10-------------|-----------------------------------| 
D-7-8----------------|-7-8----------------|-----------------------------------| 
A--------------------|--------------------|-----------------------------------| 
E--------------------|--------------------|-----------------------------------| 



----------8------------|-----------------13-|-----------------13-|| 
-11-11-11-11-10-8------|-----------10-11----|-----------10-11----|| 
------------------10-8-|-----10-------------|-----10-------------|| 
-----------------------|-7-8----------------|-7-8----------------|| 
-----------------------|--------------------|--------------------|| 
-----------------------|--------------------|--------------------|| 
Verse: Gm F Eb A moving stream of in formation Dm Cm That is calling on the wind Dm Cm Dm The secrets never end Gm F Eb And now they call, they sing, they play Dm Cm They dance for you from out of the blue Dm Cm Dm What can you do?
G Em Bm C The secret messages are calling to me endlessly Bm C They call to me across the air G Em Bm C Bm The messages across the atmosphere they whisper in your ear C D G They're calling everywhere
Verse: Gm F Eb Where words cascade like rainbows tumbling Dm Cm From the sky then I'll be there Dm Cm Dm I'll be there Gm F Eb When messages will call to you Dm Cm Their secrets all around without a sound Dm Cm Dm They're all around
G Em Bm C The secret messages are calling to me endlessly Bm C They call to me across the air G Em Bm C Bm The messages across the atmosphere they whisper in your ear C D G They're calling everywhere
Solo: 

E--10-12-12-12/7-7-10-10-10------------------------| 
B---------------------------8-8-8------------------| 
G---------------------------------11-11-11-9-7/5/7-| 
D--------------------------------------------------| 
A--------------------------------------------------| 
E--------------------------------------------------| 
C D G They're calling everywhere Gm F Eb Dm Cm Those secret messages that spill into the air from far away Dm Cm Dm So far away Gm F Eb Dm Cm A flowing river of illusion running with confusion, never gone Dm cm Dm It goes on and on
G Em Bm C The secret messages are calling to me endlessly Bm C They call to me across the air G Em Bm C Bm The messages across the atmosphere they whisper in your ear C D G They're calling everywhere
Cm Em Eb G Cm Em Eb G Cm Em Eb G Cm Em Eb G Secret messages (The messages across the atmosphere, they whisper in your ear) G Cm Em Eb G Cm Em Eb Secret messages (The secret messages are calling to me endlessly) G Cm Em Eb (The messages across the atmosphere, they whisper in your) A Secret
share this page

See Also: