E-Chords
Electric Light Orchestra

In My Own Time(Chords)

Electric Light Orchestra

roll up this ad to continue

Key: C
I
NTRO STRINGS 
  1 + 2 + 3 + 4 +   
e|--------6-------| 
B|------8---------| 
G|----8-----------| 
D|--9-------------| 
A|8---------------| 
E|----------------|                     C 
 triplets        Doom, gloom and misery ... 

LINK 1 STRINGS 
  1 + 2 + 3 + 4 +   
e|-----3-6--------| 
B|----4-----------| 
G|--4-------------| 
D|-0--------------| 
A|----------------| 
E|3---------------|                     C 
 triplets        New days have come along ... 

LINK 2 STRINGS 
  1 + 2 + 3 + 4 +  1 + 2 + 3 + 4 +  1 + 2 + 3 + 4 +   
e|----------------|----------------|----------------| 
B|1---------------|0---------------|----------------| 
G|----------------|----------------|3------2--------| 
D|----------------|----------------|----2-----------| 
A|3---------------|2---------------|1------0--------| 
E|----------------|----------------|----0-----------| 
  1 + 2 + 3 + 4 +  1 + 2 + 3 + 4 +  1 + 2 + 3 + 4 +   
e|----------------|----------------|-----3-6--------| 
B|----------------|----------------|----4-----------| 
G|3---------------|2---------------|--4-------------| 
D|----------------|----------------|-0--------------| 
A|1---------------|0---------------|----------------|  
E|----------------|----------------|3---------------|               C 
                                    triplets    Bye, bye, bye, bye ... 
C Doom, gloom and misery G7/5+ C That's what you gave to me C7 F Cold, tight, late and mean F Bb7 C Beyond my wildest dreams C E7/B Now that it's over Am C7/G And the sun came out to shine F C/E Don't look for me F/Eb Dm7 'Cause I set myself free Dm7 Bb7/9 C G7/#5/B9 In my own time LINK 1 STRINGS: see above C New days have come along G7/5+ C And now I'm at where I belong C7 F Blue sky shines above F Bb7 C And I got someone to love C E7/B Now I think about it Am C7/G Lifts the clouds from my mind F C/E Goin' out on the sea F/Eb Dm7 Getting further from me Dm7 Bb7/9 C In my own time Dm7 Bb7/9 C In my own time LINK 2 STRINGS: see above C Bye, bye, bye, bye G7/5+ C Is that a tear in your eye C7 F Too late to cry F Bb7 C You and your precious disguise C E7/B Sometimes I wonder Am C7/G If I ever saw the sign F C/E But it's too late to care F/Eb Dm7 'Cause I've done that, been there Dm7 Bb7/9 C In my own time F C/E So don't look for me F/Eb Dm7 'Cause I set myself free Dm7 Bb7/9 C In my own time Dm7 Bb7/9 C In my own time
share this page

See Also: