E-Chords
Elaine Pinheiro

Bem Vindo(Chords)

Elaine Pinheiro

Key: G
Intro G  D/F#  Em  C 

G          D/F#       Em          C              G/B 
Brevemente vai acontecer, num piscar de olhos a igreja vai 
        Am     G/B 
Desaparecer 
          C                       G/B   
Se  cumprirá a profecia, não é um sonho nem fantasia 
    Am          Am/G        D/F# 
A igreja vai trocar de endereço 
C        D          G    C      D           G      
Onde as ruas são de ouro, e os rios de cristal 
C     D          G    C        Am        D/F#  D 
Onde não haverá noite, nada na terra é igual 
C       D             G 
Onde os muros são de jaspe 
C     D           G 
Onde não tem maldição 
C         D               G 
Onde a cidade é cheia de glória 
C                 D 
Esse lugar é em Sião 
Em                                C 
Eis que breve vem o grande dia, o dia que o senhor vem busca a igreja 
   G                     D/F#                   Em 
E aquele que for fiel, o mundo abandonou, pra aqueles que escolherão 
  C                                   G 
Viver para o Senhor, pra aqueles que lutaram não negaram sua fé 
             D/F#                               C 
Vão receber coroa e ver o céu como ele é, vão ouvir do próprio 
D 
Deus 

    G 
Bem vindo as bodas 
    D/F# 
Bem vindo ao céu 
    Em                  C 
Bem vindo meu filho, porque foi fiel 
    G                   D/F# 
Bem vindo se assente, comigo a mesa, és 
    Em              C       
Bem vindo eu vou servir a igreja 

Solo G  D/F#  Em  C  

E|--15-14-17-15-14------------------------------------| 
B|-----------------15-------------15-12-13-15-12-10---| 
G|--------------------12-11-12-12-------------------12| 
D|----------------------------------------------------| 
A|----------------------------------------------------| 
E|----------------------------------------------------|
E|--------------------10-12-10----------10------------| 
B|-----10-12-10-12-13----------13-12-13---------------| 
G|--12------------------------------------------------| 
D|----------------------------------------------------| 
A|----------------------------------------------------| 
E|----------------------------------------------------|
C Onde as ruas são G/B D/F# Em Está chegando o grande dia, da igreja triunfante C Subir nas nuvens com Ele, com Ele G/B D/F# E abraçar a Ele, vai ser lindo G G/C Eu quero contemplar a face dEle Em Eu quero beijar a face dEle C Eu quero assentar no trono com Ele G Eu quero receber da mão dele o meu troféu Aleluia, aleluia D/F# Vou cantar lá em Sião Em Aleluia, Aleluia C Vou morar lá em Sião G/B Aleluia, aleluia D/F# Não mais morte, não mais dor Em Aleluia, aleluia C Vou morar com meu Senhor G Bem vindo as bodas D/F# Bem vindo ao céu Em C Bem vindo meu filho, porque foi fiel G D/F# Bem vindo se assente, comigo a mesa Em C G Eu vou te servir, eu vou servir a Igreja, haa D/F# Em C Ho,ho,ho,hooooooo, hooo G D/F# Em C G Bem vindo

roll up this ad to continue

share this page

See Also: