E-Chords
El Kanka

Rin Rin(Chords)

El Kanka

roll up this ad to continue

Key: E
Introducción super tierna: 
   E      A9      E     A9-B9 
    e|--------------|-------------|      
    b|---0------0---|---0---------|      
    g|-1--1---2-----|-1--1--2/4/2-|      
    D|--------------|-------2/4/2-|      
    A|--------0-----|-------------|      
    E|-0------------|-0-----------|      

   E     A - A9    E     A 
    e|--------------|--------0--0-|      
    b|---0----2-0---|---0----2--2-|      
    g|-1--1-------2-|-1--1--------|      
    D|--------------|-------------|      
    A|--------0-----|--------0--0-|      
    E|-0------------|-0-----------|      

Riff 

    A|----0--4-----|      
    E|-2-----------|      
1) E A Rin rin el despertador E A de las 7 y 5 yo me levanto C#m pegando un brinco Am F#m* y maldiciendo al amanecer B7 que me pone en pie E A y eso que es domingo los jubilados E A juegan al bingo y yo salgo a ver C#m si por surte me extingo Am F#m* y ya no tengo que enfrentarme B7 (2 parte de A Introducción super tierna) con los tipos de interés 2) E A Y voy abriéndome paso E A entre las legañas, y discutiendo C#m con una araña Am F#m* se me hace tarde por quinta vez B7 en lo que va E A de semana, y pierdo el metro E A y pierdo las ganas de cambiar el mundo C#m esta mañana Am F#m* se me enfrían las tostadas B7 E y se me amarga el café Estribillo) F#m B7 G#m C#m El día despierta, yo medio dormido F#m B7 G#m la cosa que arde, y yo muerto de frío C#m F#m* B7 E las calles me brindan su roto y su descosido, Y yo G#º F#m B7 G#m C#m desilachandome el corazón C#m Riff B7 (Introducción super tierna) desilachando el corazón mio (Igual al 2) Habrá que salir de casa con armadura tener el móvil con cobertura, llevar un alma por las dudas cultivar la sangre fría, apoyar la economía, afeitarse cada día, mantener la compostura, rellenar un formulario, cumplir todos los horarios, respetar el calendario, ni salidas del armario, ni castillos de papel. F#m B7 G#m C#m El día despierta, yo medio dormido F#m B7 G#m la cosa que arde, y yo muerto de frío C#m F#m* B7 E las calles me brindan su roto y su descosido, Y yo G#º F#m B7 G#m C#m desilachandome el corazón C#m Riff B7 E desilachando el corazón mio F#m B7 G#m C#m El día despierta, yo medio dormido F#m B7 G#m la cosa que arde, y yo muerto de frío C#m F#m* B7 E las calles me esquivan, yo prosigo mi camino, voy G#º F#m B7 G#m desilachandome el corazón C#m Riff B7 E desilachando el corazón mio G#º F#m B7 F E. voy descosiendo mi corazón Notas del transcriptor:
   A9    F#m         G#º 
    e|--0----------------|----4----7----|      
    b|--0------0---------|----3----6----|      
    g|--2------2---------|----4----7----|      
    D|--2------2---------|----3----6----|      
    A|--0----------------|--------------|      
    E|---------2---------|--------------|      
En el estribillo toco los acordes así, al menos en la primer vuelta:
   F#m     B7        G#m     C#m 
    e|----------------|---------------|      
    b|----------------|---------------|      
    g|---2-2-----2-2--|---4-4-----6-6-|      
    D|---2-2-----2-2--|---4-4-----6-6-|      
    A|---------2------|---------4-----|      
    E|--2-------------|--4------------|      
Y solo queda felicitarlos por la buena música que escuchan. Jesús.
share this page

See Also: