E-Chords
El Kanka

La Vereda De La Puerta De Atrás(Chords)

El Kanka

roll up this ad to continue

Key: B
Intro: 


       Em         Asus4         Cadd9 
Si no fuera porque hice colocado 

    Asus4         Em 
El camino de tu espera 

   Asus4          Cadd9    Asus4 
Me habría desconectado 

     Em         Asus4         Cadd9 
Condenado a mirarte desde fuera 

   Asus4       Em       Asus4    Cadd9   Asus4 
Y dejar que te tocara el Sol 


       Em         Asus4         Cadd9 
Y si fuera mi vida una escalera 

    Asus4         Em 
Me la he pasado entera 

   Asus4          Cadd9    Asus4 
Buscando el siguiente escalón 

     Em         Asus4         Cadd9 
Convencido que estás en el tejado 

   Asus4       Em       Asus4    Cadd9   Asus4 
Esperando a ver si llego yo 


   G                 Em                     Bm 
Y dejar de lado la vereda de la puerta de atrás 

        C/E 
Por donde te vi marchar 

   G                     Em                          Bm 
Como una regadera que la hierba hace que vuelva a brotar 

        C/E 
Y ahora todo campo ya 


*Se toca igual a los primeros versos antes del coro* 

Sus soldados son flores de madera 
Mi ejército no tiene banderas, solo un corazón 
Condenado a vivir entre maleza 
Sembrando flores de algodón 

Si me espera la muerte traicionera 
Y antes de repartirme del todo, me veo en un cajón 
Que me entierren con la picha por fuera 
Pa' que se la coma un ratón 


   G                        Em                 Bm 
Y muere a todas horas gente dentro de mi televisor 

           C/E 
Quiero oír alguna canción 

   G                           Em                    Bm 
Que no hable de sandeces y que diga que no sobra el amor 

           C/E 
Y que empiece en sí, no en no 

   G                 Em                     Bm 
Y dejar de lado la vereda de la puerta de atrás 

        C/E 
Por donde te vi marchar 

   G                     Em                          Bm 
Como a una regadera que la hierba hace que vuelva a brotar 

        C/E 
Y ahora todo campo ya 


*Ahora viene la melodía antes del verso final* 
E|------------------------------------------------------------| 
B|------------------------------------------------------------| 
G|------------0----------------------------0------------------| 
D|--0-0-0-0-0---4--0-0-0---------0-0-0-0-0---4--0-0-0---------| 
A|------------------------3-2-2-----------------------3-2-3---| 
E|------------------------------------------------------------| 

E|------------------------------------------------------------| 
B|------------------------------------------------------------| 
G|--0-0-0-0--4-0-----------------0-0-0-0--4-0-------0---------| 
D|--0-0-0-0--5-4--4-4-4--2-0-0---0-0-0-0--5-4--4-4-4--2-1-2---| 
A|----------------5-5-5--3-2-2-----------------5-5-5--3-2-3---| 
E|------------------------------------------------------------| 
C/G D/A Em Dices que a veces no comprendes qué dice mi voz D/F# ¿Cómo quieres que esté dentro de tu ombligo? C/G D/A Em Si entre los dedos se me escapa volando una flor D/F# Y ella solita va marcando el camino C/G D/A Em Dices que a veces no comprendes qué dice mi voz D/F# ¿Cómo quieres que yo sepa lo que digo? C/G D/A Em Si entre los dedos se me escapa volando una flor D/F# Y yo la dejo que me marque el camino Outro: Los mismos acordes del último verso (el tarareo)
share this page

See Also: