E-Chords
El Chavl

Donde Están Esos Amigos(Chords)

El Chavl

Key: Am

roll up this ad to continue

        Capo en 1 (Clave de C#) 

Discúlpame amigos. Eso es mi primer Tab, y falta unos partes y estoy seguro que hay errores. Quiero leer comentas y correcciones ([email protected]). Pueden ver un hombre tocando esa cancion aquí http://www.youtube.com/watch?v=AolUplzbZM8 
Y El Chval aquí http://www.youtube.com/watch?v=08GLykALchE&NR=1 

Introducción (que falta) 

Am 
Decían mis amigos 
G 
Somos tus amigos 
F 
Por toda la vida 
Am 
Te seremos fiel 

Am 
Me sentí alagado 
G 
y muy superado 
F 
casi mi fortuna 
Am 
con ellos gaste 

Am 
surgieron problemas 
G 
en mi economía 
F 
por un corto tiempo 
Am 
desaparecí 

Am    G           F 
y aquellas palabras 

que tanto decían 
G 
ahora me doy cuenta 
Am 
que no eran así 

F			G 
¿donde están esos amigos 
    Am 
que me decían? 

F			G 
que en la buenas y en la malas 
               Am 
conmigo estarían 

F			G 
que cosa tienen la vida 
	Am 
todo era mentira 
F		G 
porque de mi se alejaron 
	   Am 
cuando yo caía 

F		E 
y solo me quedo uno 
                   Am 
que me sonreía 


F		   E 
y solo me quedo uno 
	       Am 
por toda la vida 

{Repita la introducción} 

si señor es lamentable el caso 
comprender cuando se hace leña de árbol caído 
pero con fe en dios 

oye Rubén con mucho cariño mi hermano 
El Chaval 

oye esa guitarra 

e|-14--13-14-13-14-13-16-11--11-11-13-11-14-13------| 
B|--------------------------------------------------| 
G|--------------------------------------------------| 
D|--------------------------------------------------| 
A|--------------------------------------------------| 
E|--------------------------------------------------| 

e|--------------------------------------------------| 
B|-14-13-14-13-14-16-14-13--10-11-13-13-11----------| 
G|--------------------------------------------------| 
D|--------------------------------------------------| 
A|--------------------------------------------------| 
E|--------------------------------------------------| 

e|--------------------------------------------------| 
B|-14-13-14-13-14-16-14-13--10-11-13-13-11----------| 
G|--------------------------------------------------| 
D|--------------------------------------------------| 
A|--------------------------------------------------| 
E|--------------------------------------------------|
Am una y mil mujeres G de mi compañía F me daban placeres Am y me divertían Am producto de todo G lo que yo tenía F pero en realidad Am nunca fueron mías Am escuchen señores G estas triste historia F que por este medio Am hoy le canto yo Am G F no es algo ficticio es un realismo G de algo muy serio Am que me sucedió F G los amigos y mujeres Am que me divertían F G todos me lo celebraban Am cuando yo tenía F G pero a verme en decadencia Am todo los perdía F E y solo me quedo uno Am por toda la vida F E y solo me quedo uno Am por toda la vida
e|-14--13-14-13-14-13-16-11--11-11-13-11-14-13-------| 
B|--------------------------------------------------| 
G|--------------------------------------------------| 
D|--------------------------------------------------| 
A|--------------------------------------------------| 
E|--------------------------------------------------| 

que tristeza de la vida 

e|--------------------------------------------------| 
B|-14-13-14-13-14-16-14-13--10-11-13-13-11----------| 
G|--------------------------------------------------| 
D|--------------------------------------------------| 
A|--------------------------------------------------| 
E|--------------------------------------------------|
F E y solo me quedo uno Am por toda la vida
share this page

See Also: