E-Chords
Ektomorf

Show Your Fist(Chords)

Ektomorf

roll up this ad to continue

Key: C
Tuning: Dropped C 

D |-----------------------| 
A |-----------------------| 
F |-----------------------| 
C |-----------------------| x4   (Intro) 
G |-----------------------| 
C |-0h3-0h2-0-0h2-0-3-3-3-| 

D |-----------------------| 
A |-----------------------| 
F |-----------------------| 
C |-----------------------| x8   (Chorus) 
G |-0-3-0-2-0-0-2-0-3-3-3-| 
C |-0h3-0h2-0-0h2-0-3-3-3-| 

D |-----7-7-------7-7-|---------------------| 
A |-------------------|-------6-6-------6-6-| 
F |-----4-4-------4-4-|---------------------| 
C |-------------------|-------3-3-------3-3-| x2    (Specky) 
G |-0-0---------------|---------------------| 
C |-0-0-----0-0-0-----|-0-3-3-----0-3-3-----| 

D |-----------------------| 
A |-----------------------| 
F |-----------------------| 
C |-----------------------| x4   (Simple) 
G |-0-0-0-0-1-0-0-0-0-1-1-| 
C |-0-0-0-0-1-0-0-0-0-1-1-| 

*Intro x 2 

*Chorus x 8 

*Specky x 2 

*Simple x 4 

D |-------|----|----|----|-------|----|----|----| 
A |-------|----|----|----|-------|----|----|----| 
F |-------|----|----|----|-7-----|----|----|----| 
C |-0-----|----|----|----|-x-----|----|----|----| x4  (Drum interlude) 
G |-0-----|----|----|----|-5-----|----|----|----| 
C |-0-----|----|----|----|-------|----|----|----| 
   Ring...............   Ring................ 

*Simple x 4 

D |------------------------|------------------------| 
A |------------------------|------------------------| 
F |------------------------|------------------------| 
C |------------------------|------------------------| x4 
G |-0-0-0-0-1--0-0-0-0-1-1-|-0-0-0-0-1--0-0-0-0-4-1-| 
C |-0-0-0-0-1--0-0-0-0-1-1-|-0-0-0-0-1--0-0-0-0-4-1-| 

*3 bars rest letting ring..... use feedback 

D |-----------------|     |-----------------| 
A |-----------------|     |-----------------| 
F |-----------------|     |-----------------| 
C |-----------------| x3  |-----------------| x4    (Outro) 
G |-0-4-0-3-0-0-4-4-|     |-0-0-0-0-0-0-0-0-| 
C |-0-4-0-3-0-0-4-4-|     |-0-0-0-0-0-0-0-0-| 
share this page

See Also: