E-Chords
Eidola

Sri Vishnu Yantra(Chords)

Eidola

Key: C
 


Intro 
Guitar 1: 
D||---------------------------------|---------------------------------| 
A||--/6-----------------------------|---------------------------------| 
F||------5--7-----------5-----------|---------------------------------| 
C||------------7-----------------7--|--7--------------------5---------| 
G||---------------------------------|--x----------1------3-----3--/5--| 
C||---------------------------------|--3------------------------------| 


D||---------------------------------|---------------------------------| 
A||---6-----------------8---\-------|---------------------------------| 
F||------5--7-----------------------|---------------------------------| 
C||------------7--------------------|--7--------------------5---------| 
G||---------------------------------|--x----------1------3-----3--/5--| 
C||---------------------------------|--3------------------------------| 


D||---------------------5-----------|---------------------------------| 
A||--/6-----------------5-----------|---------------------------------| 
F||------5--7-----------5-----------|---------------------------------| 
C||------------7--------------5-----|---------------------------------| 
G||---------------------------5-----|--8---------3--------------------| 
C||---------------------------------|----------------------0----------| 


Guitar 2: 
D||---------------------------------|-----3---------------------------| 
A||--/10----------------------------|-------------3------5------------| 
F||------9--10----------12-------7--|---------------------------------| 
C||---------------------------------|---------------------------------| 
G||---------------------------------|---------------------------------| 
C||---------------------------------|--3---------------------------0--| 


D||---------------------------------|-----5-----------3---------------| 
A||--/10----------------13----------|---------------------------------| 
F||------9--10--12------------------|---------------------------------| 
C||---------------------------------|---------------------------------| 
G||---------------------------------|--3----------1--1----------------| 
C||---------------------------------|------------------------------0--| 


D||---------------------------------|---------------------------------| 
A||--/10-------------------------5--|------------------------8--------| 
F||------9--10--12-----7------------|---------10----------------------| 
C||---------------------------------|---------------------------------| 
G||---------------------------------|---------------------------------| 
C||---------------------------5-----|--8---------------7-----------0--| 



Guitar 1: 
D||--5h8p5------------------------------|--5h8p5----------------------------------------| 
A||---------5h6p5-----------------------|---------5h6p5---------------------------------| 
F||----------------5h7p5----------------|----------------5h7p5---------------10---h12\--| 
C||-----------------------7/10-------7--|-----------------------7/10---/12--------------| 
G||-------------------------------------|-----------------------------------------------| 
C||-------------------------------------|-----------------------------------------------| 


D||--5h8p5------------------------------|----------------| 
A||---------5h6p5-----------------------|----------------| 
F||----------------5h7p5----------------|-----7-------9--| 
C||-----------------------7/10-------7--|--5-------7-----| 
G||-------------------------------------|----------------| 
C||-------------------------------------|----------------| 


D||--5h8p5------------------------------|--5h8p5-------------------------------------10--| 
A||---------5h6p5-----------------------|---------5h6p5-----------------------/10--------| 
F||----------------5h7p5----------------|----------------5h7p5----------10---------------| 
C||-----------------------7/10-------7--|-----------------------7/10---------------------| 
G||-------------------------------------|------------------------------------------------| 
C||-------------------------------------|------------------------------------------------| 


D||--5h8p5------------------------------|----------------| 
A||---------5h6p5-----------------------|----------------| 
F||----------------5h7p5----------------|-----7-------9--| 
C||-----------------------7/10-------7--|--5-------7-----| 
G||-------------------------------------|----------------| 
C||-------------------------------------|----------------| 


Guitar 2: 
D||----------------------------3--------|----------------------------------10h12--------8h10------| 
A||--/10----------------13--------3-----|----/10-------------13/15\13------------10----------8----| 
F||-------9--9/10h12-----------------5--|---------9--9/10h12--------------------------------------| 
C||-------------------------------------|---------------------------------------------------------| 
G||-------------------------------------|---------------------------------------------------------| 
C||-------------------------3-----------|--0---------------------------10------------8---------0--| 


D||----------------------------5--------|-------------------------| 
A||--/10--------------------------5-----|----------------8--------| 
F||-------9--9/10h12--12\7-----------7--|-----10------------9-----| 
C||-------------------------------------|---------12--------------| 
G||-------------------------------------|-------------------------| 
C||-------------------------5-----------|--8----------7--------0--| 


D||-------------------------------3-------------0--| 
A||--/10--------------13/15\13-------3----3---3----| 
F||-------9--9/10h12--------------------5---5------| 
C||------------------------------------------------| 
G||------------------------------------------------| 
C||----------------------------3-------------------| 


D||----------------------------------10h12p10-------8h110p8-------| 
A||-----/10--------------13/15\13-------------10------------8-----| 
F||----------9--9/10h12-------------------------------------------| 
C||---------------------------------------------------------------| 
G||---------------------------------------------------------------| 
C||--0----------------------------10--------------8------------0--| 


D||----------------------------5-----------|-------------------------| 
A||--/10--------------------------5--------|----------------8--------| 
F||-------9--9/10h12--12\7-----------7-----|-----10------------9-----| 
C||-------------------------------------7--|---------12--------------| 
G||----------------------------------------|-------------------------| 
C||-------------------------5--------------|--8----------7-----------| 



Chorus 
Guitar 1: 
D||-----------------------------------------------------| 
A||-----------------------------------------------------| 
F||-----------10-7-7-10-7-7-10/12---9----0-/7---5/7-10--| 
C||--0--------x--x-x-x--x-x-x-/x--x-x---------0---------| 
G||--0--------8--5-5-8--5-5-8-/10-x-7-------------------| 
C||--0----------------------------x---------------------| 


D||------------------------------------------------------------| 
A||------------------------------------------------------------| 
F||--9-9-9-9-9\---/10-10-10-10-10\---/5-5-5-5-5-5-7-7-7-7------| 
C||-------------------------------------------------------x-x--| 
G||-------------------------------------------------------x-x--| 
C||-------------------------------------------------------x-x--| 


D||-----------------------------------------------------| 
A||-------------------------------------------------10--| 
F||-----------10-7-7-10-7-7-10/12---9----0-/7---5/7-----| 
C||--0--------x--x-x-x--x-x-x-/x--x-x---------0---------| 
G||--0--------8--5-5-8--5-5-8-/10-x-7-------------------| 
C||--0----------------------------x---------------------| 


D||------------------------------------------------------------| 
A||----------------------------------/10-10-10-10-10-10-10\----| 
F||--9-9-9-9-9\---/10-10-10-10-10\-----------------------------| 
C||------------------------------------------------------------| 
G||------------------------------------------------------------| 
C||------------------------------------------------------------| 


Guitar 2: 
D||-----------------------------------------------| 
A||-----------------------------------------------| 
F||-----------5-----5/7---10-9-----------------7--| 
C||--0--------x-----x/x---x--x-x-----------5------| 
G||--0--------3-0-0-3/5-0-8--7-x------/5-6---6----| 
C||--0-------------------------x-5----------------| 


D||---------------------------------------------------------| 
A||--8-8-8-8----8-8-8-8----10-10-10-10----10-10-10-10-------| 
F||--9-9-9-9----9-9-9-9----10-10-10-10----10-10-10-10-------| 
C||--0-0-0-0----0-0-0-0----0--0--0--0-----0--0--0--0--x--x--| 
G||---------------------------------------------------x--x--| 
C||---------------------------------------------------x--x--| 


D||-----------------------------------------------| 
A||-----------------------------------------------| 
F||-----------5-----5/7---10-9-----------------7--| 
C||--0--------x-----x/x---x--x-x-----------5------| 
G||--0--------3-0-0-3/5-0-8--7-x------/5-6---6----| 
C||--0-------------------------x-5----------------| 


D||-----------------------------------------------| 
A||--8-8-8-8----8-8-8-8----10-10-10-10-10-10-10\--| 
F||--9-9-9-9----9-9-9-9----10-10-10-10-10-10-10\--| 
C||--0-0-0-0----0-0-0-0----0--0--0--0--0--0--0-\--| 
G||-----------------------------------------------| 
C||-----------------------------------------------| 



Verse 
Guitar 1 (Delay effect): 
D||--8----8----8----8----8----8-----|-----15----15----15----15----15----15------------| 
A||----10---10---10---10---10---10--|--18----18----18----18----18----18----15---------| 
F||---------------------------------|-------------------------------------------------| 
C||---------------------------------|-------------------------------------------------| 
G||---------------------------------|-------------------------------------------------| 
C||---------------------------------|-------------------------------------------------| 


D||--8----8----8----8----8----8-----|-----15----15----15----15----15----15-15-----17--| 
A||----10---10---10---10---10---10--|--18----18----18----18----18----18---------------| 
F||---------------------------------|-------------------------------------------------| 
C||---------------------------------|-------------------------------------------------| x2 
G||---------------------------------|-------------------------------------------------| 
C||---------------------------------|-------------------------------------------------| 


Guitar 2: 
D||--------0-----------------5------------------0------------------3--| 
A||------6-----------------3------------------6------------------1----| 
F||----7-----------------5------------------7------------------3------| 
C||--0-----------------3------------------0------------------1--------| x2 
G||-------------------------------------------------------------------| 
C||-------------------------------------------------------------------| 



Pre-Chorus 
Guitar 1: 
D||--------------------------------------------------------------| 
A||--------------------------------------------------------------| 
F||----------12/14\12-10\7--------------------------------11\10--| 
C||--12----------------------------11h12---------11h12-11--------| 
G||--------------------------11h12---------11h12-----------------| 
C||-----12-------------------------------------------------------| 


D||--------------------------------------------------------------| 
A||-----------------------------13-------------------------------| 
F||----------12/14\12-10\7---14----14-12\9---10---10\7/10--------| 
C||--12---------------------------------------------------12-----| 
G||----------------------------------------------------------12--| 
C||-----12-------------------------------------------------------| 


D||--------------------------------------------------------------| 
A||--------------------------------------------------------------| 
F||----------12/14\12-10\7--------------------------------11\10--| 
C||--12----------------------------11h12---------11h12-11--------| 
G||--------------------------11h12---------11h12-----------------| 
C||-----12-------------------------------------------------------| 


D||-----------------------------------------------------12-12-12-12-13-13--| 
A||-----------------------------13----15-15-15-15-15-15--------------------| 
F||----------12/14\12-10\7---14----14--------------------------------------| 
C||--12--------------------------------------------------------------------| 
G||------------------------------------------------------------------------| 
C||-----12-----------------------------------------------------------------| 


Guitar 2: 
D||----------------------------------------------------------------| 
A||----------------------------------------------------------------| 
F||----------------10/12-------------------------------------------| 
C||--12------------------------------------------------------------| 
G||----------10/12-------10-12/15-------12-0---0---7h8p7-------10--| 
C||-----12------------------------15-14------------------10-12-----| 


D||-------------------------------------------------------------------| 
A||-------------------------------------------------------------------| 
F||----------------10/12----------------------------------------------| 
C||--12--------------------------------------------------------10-12--| 
G||----------10/12-------10-12/15----------7-8-10/12---8-10/12--------| 
C||-----12------------------------15-14-10----------------------------| 


D||----------------------------------------------------------------| 
A||----------------------------------------------------------------| 
F||----------------10/12-------------------------------------------| 
C||--12------------------------------------------------------------| 
G||----------10/12-------10-12/15-------12-0---0---7h8p7-------10--| 
C||-----12------------------------15-14------------------10-12-----| 


D||--------------------------------------------------------------------------| 
A||--------------------------------------------------------------------------| 
F||----------------10/12-----------------------------------------------------| 
C||--12---------------------------------------------------10-10-10-10-10-10--| 
G||----------10/12-------10-12/15----------------10-10-10-10-10-10-10-10-10--| 
C||-----12------------------------15-14-10-10-10-10-10-10-10-10-10-10-10-10--| 



Chorus 
Guitar 1: 
D||-----------------------------------------------------| 
A||-----------------------------------------------------| 
F||-----------10-7-7-10-7-7-10/12---9----0-/7---5/7-10--| 
C||--0--------x--x-x-x--x-x-x-/x--x-x---------0---------| 
G||--0--------8--5-5-8--5-5-8-/10-x-7-------------------| 
C||--0----------------------------x---------------------| 


D||------------------------------------------------------------| 
A||------------------------------------------------------------| 
F||--9-9-9-9-9\---/10-10-10-10-10\---/5-5-5-5-5-5-7-7-7-7------| 
C||-------------------------------------------------------x-x--| 
G||-------------------------------------------------------x-x--| 
C||-------------------------------------------------------x-x--| 


D||-----------------------------------------------------| 
A||-------------------------------------------------10--| 
F||-----------10-7-7-10-7-7-10/12---9----0-/7---5/7-----| 
C||--0--------x--x-x-x--x-x-x-/x--x-x---------0---------| 
G||--0--------8--5-5-8--5-5-8-/10-x-7-------------------| 
C||--0----------------------------x---------------------| 


D||------------------------------------------------------------------| 
A||----------------------------------/10-10-10-10-10-10-13-13-x--15--| 
F||--9-9-9-9-9\---/10-10-10-10-10\-----------------------------------| 
C||------------------------------------------------------------------| 
G||------------------------------------------------------------------| 
C||------------------------------------------------------------------| 


Guitar 2: 
D||-----------------------------------------------| 
A||-----------------------------------------------| 
F||-----------5-----5/7---10-9-----------------7--| 
C||--0--------x-----x/x---x--x-x-----------5------| 
G||--0--------3-0-0-3/5-0-8--7-x------/5-6---6----| 
C||--0-------------------------x-5----------------| 


D||---------------------------------------------------------| 
A||--8-8-8-8----8-8-8-8----10-10-10-10----10-10-10-10-------| 
F||--9-9-9-9----9-9-9-9----10-10-10-10----10-10-10-10-------| 
C||--0-0-0-0----0-0-0-0----0--0--0--0-----0--0--0--0--x--x--| 
G||---------------------------------------------------x--x--| 
C||---------------------------------------------------x--x--| 


D||-----------------------------------------------| 
A||-----------------------------------------------| 
F||-----------5-----5/7---10-9-----------------7--| 
C||--0--------x-----x/x---x--x-x-----------5------| 
G||--0--------3-0-0-3/5-0-8--7-x------/5-6---6----| 
C||--0-------------------------x-5----------------| 


D||---------------------------------------------------------| 
A||--8-8-8-8----8-8-8-8----10-10-10-10----10-10-10-10-------| 
F||--9-9-9-9----9-9-9-9----10-10-10-10----10-10-10-10-------| 
C||--0-0-0-0----0-0-0-0----0--0--0--0-----0--0--0--0--x--x--| 
G||---------------------------------------------------x--x--| 
C||---------------------------------------------------x--x--| 



Breakdown 
Guitar 1:                                                     T 
D||------------------------------------------------------------------| 
A||--3------------3------------3------------6p3h6p3h6p3h6p3h6-8p6p3--| 
F||--5b-----------5b-----------5b------------------------------------| 
C||------0-0----------0-0----------0-0-------------------------------| 
G||------0-0----------0-0----------0-0-------------------------------| 
C||------0-0----------0-0----------0-0-------------------------------| 
         . .          . .          . . 


D||-----------------------------------------------------| 
A||--3------------3-------------------------------------| 
F||--5b-----------5b-----------5-5-5-7-7-7-10-10-12-14--| 
C||------0-0----------0-0-------------------------------| 
G||------0-0----------0-0-------------------------------| 
C||------0-0----------0-0-------------------------------| 
         . .          . . 

                                                              T 
D||------------------------------------------------------------------| 
A||--3------------3------------3------------6p3h6p3h6p3h6p3h6-8p6p3--| 
F||--5b-----------5b-----------5b------------------------------------| 
C||------0-0----------0-0----------0-0-------------------------------| 
G||------0-0----------0-0----------0-0-------------------------------| 
C||------0-0----------0-0----------0-0-------------------------------| 
         . .          . .          . . 


D||-------------------------------------------| 
A||--3------------3------------6-6-6-6-6-6-6--| 
F||--5b-----------5b-----------7-7-7-7-7-7-7--| 
C||------0-0----------0-0------5-5-5-5-5-5-5--| 
G||------0-0----------0-0---------------------| 
C||------0-0----------0-0---------------------| 
         . .          . . 


Guitar 2: 
D||-------------------------------------------------------| 
A||-------------------------------------------------------| 
F||-----------------------------------------5-----5/7-10--| 
C||--0---0-0------0---0-0------0---0-0------x-----x/x-x---| 
G||--0---0-0------0---0-0------0---0-0------3-0-0-3/5-8---| 
C||--0---0-0------0---0-0------0---0-0--------------------| 
         . .          . .          . . 


D||-----------------------------------------------------------| 
A||----------------------------8-8-8-8-8-8-10-10-10-10-10-10--| 
F||----------------------------9-9-9-9-9-9-10-10-10-10-10-10--| 
C||--0---0-0------0---0-0------0-0-0-0-0-0-0--0--0--0--0--0---| 
G||--0---0-0------0---0-0-------------------------------------| 
C||--0---0-0------0---0-0-------------------------------------| 
         . .          . . 


D||-------------------------------------------------------| 
A||-------------------------------------------------------| 
F||-----------------------------------------5-----5/7-10--| 
C||--0---0-0------0---0-0------0---0-0------x-----x/x-x---| 
G||--0---0-0------0---0-0------0---0-0------3-0-0-3/5-8---| 
C||--0---0-0------0---0-0------0---0-0--------------------| 
         . .          . .          . . 


D||--------------------------------------------------| 
A||----------------------------10-10-10-10-10-10-10--| 
F||----------------------------10-10-10-10-10-10-10--| 
C||--0---0-0------0---0-0------0--0--0--0--0--0--0---| 
G||--0---0-0------0---0-0----------------------------| 
C||--0---0-0------0---0-0----------------------------| 
         . .          . . 



Bridge 
Guitar 1 (Delay effect): 
D||--8----8----8----8----8----8-----| 
A||----10---10---10---10---10---10--| 
F||---------------------------------| 
C||---------------------------------| x4 
G||---------------------------------| 
C||---------------------------------| 


Guitar 2: 
D||--------0-----------------0------------------0------------------0--| 
A||------6-----------------6------------------6------------------6----| 
F||----7-----------------7------------------7------------------7------| 
C||--0-----------------0------------------0------------------0--------| 
G||-------------------------------------------------------------------| 
C||-------------------------------------------------------------------| 



Interlude 
Guitar 1 (Tremelo Dub): 
D||----------------------------| 
A||----------------------------| 
F||----------------------------| 
C||--000000000000000000000000--| x4 
G||----------------------------| 
C||----------------------------| 


Guitar 2: 
D||----------------------------------------------------------------| 
A||-------6---------8----------10-----------6---------8---------3--| 
F||-----7---------9---------10------------7---------9---------5----| 
C||--0---------0---------0-------------0---------0---------0-------| x2 
G||----------------------------------------------------------------| 
C||----------------------------------------------------------------| 



Guitar 1: 
D||-----------------------------------------------------------------------| 
A||-----------------------------------------------------------------------| 
F||-----------------------------12---------------------------------12-----| 
C||--------------12-14----14-15---------------------12-14----14-15----12--| 
G||-----10-12-12-------15------------------10-12-12-------15--------------| 
C||--12---------------------------------12--------------------------------| 
     .  .  .  .  .  .  .  .  .  .       . .  .  .  .  .  .  .  .  .  . 

D||-----------------------------------------------------------------------| 
A||-----------------------------------------------------------------------| 
F||-----------------------------12----------------------------------------| 
C||--------------12-14----14-15---------------------12-14-15--14----------| 
G||-----10-12-12-------15------------------10-12-12---------------15--12--| 
C||--12---------------------------------12--------------------------------| 
     .  .  .  .  .  .  .  .  .  .       . .  .  .  .  .  .    .   .   . 


Guitar 2: 
D||--------------------------------10----12-----------------------------0------| 
A||-------6---------8----------10-----10---------6---------8---------3------6--| 
F||-----7---------9---------10-----------------7---------9---------5------5----| 
C||--0---------0---------0------------------0---------0---------0--------------| 
G||----------------------------------------------------------------------------| 
C||----------------------------------------------------------------------------| 


D||--------------------------------10----12------------------------| 
A||-------6---------8----------10-----10---------6---------8----3--| 
F||-----7---------9---------10-----------------7---------9------5--| 
C||--0---------0---------0------------------0---------0---------0--| 
G||----------------------------------------------------------------| 
C||----------------------------------------------------------------| 



Guitar 1: 
D||---------------------------------------------| 
A||---------------------------------------------| 
F||---------------------------------------------| 
C||---------------------12h14p12------14h15p14--| 
G||------10h12p10--/12------------15------------| 
C||--12-----------------------------------------| 


D||-------------------------------------------------------------| 
A||-------------------------------------------------------------| 
F||---------------------------------------------12--------------| 
C||---------------------12h14p12------14h15p14-----14-12/14\12--| 
G||------10h12p10--/12------------15----------------------------| 
C||--12---------------------------------------------------------| 


D||----------------------------------------------------------------| 
A||----------------------------------------------------------------| 
F||---------------------------------------------12-------12/14\12--| 
C||---------------------12h14p12------14h15p14-----14--------------| 
G||------10h12p10--/12------------15------------------15-----------| 
C||--12------------------------------------------------------------| 


D||---------------------------------------------------------| 
A||---------------------------------------------------------| 
F||---------------------------------------------------------| 
C||---------------------12h14p12--15--14----------12--------| 
G||------10h12p10--/12--------------------15--12--------15--| 
C||--12-----------------------------------------------------| 


Guitar 2: 
D||--------------------------------10h12p10----12h13p12-----------------------------0------| 
A||-------6---------8----------10-----------10---------------6---------8---------3------6--| 
F||-----7---------9---------10-----------------------------7---------9---------5------5----| 
C||--0---------0---------0------------------------------0---------0---------0--------------| 
G||----------------------------------------------------------------------------------------| 
C||----------------------------------------------------------------------------------------| 


D||--------------------------------10h12p10----12h13p12---------------------------------------------| 
A||-------6---------8----------10-----------10---------------6---------8----------------------------| 
F||-----7---------9---------10-----------------------------7---------9------5--5--5--5--3--3--3--3--| 
C||--0---------0---------0------------------------------0---------0---------0--0--0--0--0--0--0--0--| 
G||-------------------------------------------------------------------------------------------------| 
C||-------------------------------------------------------------------------------------------------| 



Guitar 1: 
D||------------------------------------------------|------------------------------------------------| 
A||------------------------------------------------|------------------------------------------------| 
F||------------------------------------------------|---------------------------------12--/14--17----| 
C||--------------------10/12-14-12----14h15-14-----|--------------------10/12-14-15-----------------| 
G||------8-10/12-10----------------------------15--|------8-10/12-10--------------------------------| 
C||--12--------------------------------------------|--12--------------------------------------------| 


D||------------------------------------------------|------------------------------------------------| 
A||------------------------------------------------|------------------------------------------------| 
F||------------------------------------------------|------------------------------------------------| 
C||--------------------10/12-14-12----14h15-14-----|--12--------------------------------------------| 
G||------8-10/12-10----------------------------15--|--------12----15---15---15---15---13---13---13--| 
C||--12--------------------------------------------|------------------------------------------------| 


Guitar 2: 
D||---------------------------------------12h13p12--------------------------------| 
A||------6-------8---10---10-10---10-10-----------------6-------8--------------3--| 
F||------7-------9---10---10-10---10-10-----------------7-------9---5--5--5--5----| 
C||------0-------0---0----0--0----0--0------------------0-------0---0--0--0-------| 
G||------------------x----x--x----x--x--------------------------------------------| 
C||--0-------8-------10---10-10---10-10-------------0-------8---------------------| 


D||---------------------------------------12h13p12---------------------------------------| 
A||------6-------8---10---10-10---10-10-----------------6-------8------------------------| 
F||------7-------9---10---10-10---10-10-----------------7-------9---5--5--5--5--3--3--3--| 
C||------0-------0---0----0--0----0--0------------------0-------0---0--0--0--0--0--0--0--| 
G||------------------x----x--x----x--x---------------------------------------------------| 
C||--0-------8-------10---10-10---10-10-------------0-------8----------------------------| 



Outro 
Guitar 1: 
D||------------------------------------------------|------------------------------------------------| 
A||------------------------------------------------|------------------------------------------------| 
F||------------------------------------------------|---------------------------------12--/14--17----| 
C||--------------------10/12-14-12----14h15-14-----|--------------------10/12-14-15-----------------| 
G||------8-10/12-10----------------------------15--|------8-10/12-10--------------------------------| 
C||--12--------------------------------------------|--12--------------------------------------------| 


D||------------------------------------------------|------------------------------------------------| 
A||------------------------------------------------|------------------------------------------------| 
F||------------------------------------------------|------------------------------------------------| 
C||--------------------10/12-14-12----14h15-14-----|--12------------------------------12---------\--| 
G||------8-10/12-10----------------------------15--|--------12----15--------------------------------| 
C||--12--------------------------------------------|------------------------------------------------| 


D||------------------------------------------------|------------------------------------------------| 
A||------------------------------------------------|------------------------------------------------| 
F||------------------------------------------------|---------------------------------12--/14--17----| 
C||--------------------10/12-14-12----14h15-14-----|--------------------10/12-14-15-----------------| 
G||------8-10/12-10----------------------------15--|------8-10/12-10--------------------------------| 
C||--12--------------------------------------------|--12--------------------------------------------| 


D||------------------------------------------------| 
A||------------------------------------------------| 
F||------------------------------------------------| 
C||--------------------10/12-14-12----14h15-14-----| 
G||------8-10/12-10----------------------------15--| 
C||--12--------------------------------------------| 


D||-------------------------------------------------------------------| 
A||---------------------------------------------------------------15--| 
F||-----------------------------12-------------14-12----12------------| 
C||--12----------15-12----12-------15-12-15----------15---------------| 
G||--------12----------15---------------------------------------------| 
C||-------------------------------------------------------------------| 


Guitar 2: 
D||---------------------------------------------------------------| 
A||--6-6-6-6-----8-8-8-8-----10-10-10-10-10-10-10-10-10-10-10-10--| 
F||--7-7-7-7-----9-9-9-9-----10-10-10-10-10-10-10-10-10-10-10-10--| 
C||--0-0-0-0-x-x-0-0-0-0-x-x-0--0--0--0--0--0--0--0--0--0--0--0---| 
G||--0-0-0-0-x-x-x-x-x-x-x-x-x--x--x--x--x--x--x--x--x--x--x--x---| 
C||--0-0-0-0-x-x-8-8-8-8-x-x-10-10-10-10-10-10-10-10-10-10-10-10--| 


D||---------------------------------------------------------------| 
A||--6-6-6-6-----8-8-8-8-----10-10----10-10----10-10----10-10-----| 
F||--7-7-7-7-----9-9-9-9-----10-10----10-10----10-10----10-10-----| 
C||--0-0-0-0-x-x-0-0-0-0-x-x-0--0-----0--0-----0--0-----0--0------| 
G||--0-0-0-0-x-x-x-x-x-x-x-x-x--x-----x--x-----x--x-----x--x------| 
C||--0-0-0-0-x-x-8-8-8-8-x-x-10-10----10-10----10-10----10-10-----| 


D||---------------------------------------------------------------| 
A||--6-6-6-6-----8-8-8-8-----10-10-10-10-10-10-10-10-10-10-10-10--| 
F||--7-7-7-7-----9-9-9-9-----10-10-10-10-10-10-10-10-10-10-10-10--| 
C||--0-0-0-0-x-x-0-0-0-0-x-x-0--0--0--0--0--0--0--0--0--0--0--0---| 
G||--0-0-0-0-x-x-x-x-x-x-x-x-x--x--x--x--x--x--x--x--x--x--x--x---| 
C||--0-0-0-0-x-x-8-8-8-8-x-x-10-10-10-10-10-10-10-10-10-10-10-10--| 


D||--------------------------------------------------------| 
A||--6-6-6-6-----8-8-8-8-----------------------------------| 
F||--7-7-7-7-----9-9-9-9-----5--5--5--5--3--3--3-----------| 
C||--0-0-0-0-x-x-0-0-0-0-x-x-0--0--0--0--0--0--0--x-x-x-x--| 
G||--0-0-0-0-x-x-x-x-x-x-x-x----------------------x-x-x-x--| 
C||--0-0-0-0-x-x-8-8-8-8-x-x----------------------x-x-x-x--| 


D||---------------------------------------------------------------| 
A||--6-6-6-6-----8-8-8-8-----10-10-10-10-10-10-10-10-10-10-10-10--| 
F||--7-7-7-7-----9-9-9-9-----10-10-10-10-10-10-10-10-10-10-10-10--| 
C||--0-0-0-0-x-x-0-0-0-0-x-x-0--0--0--0--0--0--0--0--0--0--0--0---| 
G||--0-0-0-0-x-x-x-x-x-x-x-x-x--x--x--x--x--x--x--x--x--x--x--x---| 
C||--0-0-0-0-x-x-8-8-8-8-x-x-10-10-10-10-10-10-10-10-10-10-10-10--| 


D||---------------------------------------------------------------| 
A||--6-6-6-6-----8-8-8-8-----10-10----10-10----10-10----10-10-----| 
F||--7-7-7-7-----9-9-9-9-----10-10----10-10----10-10----10-10-----| 
C||--0-0-0-0-x-x-0-0-0-0-x-x-0--0-----0--0-----0--0-----0--0------| 
G||--0-0-0-0-x-x-x-x-x-x-x-x-x--x-----x--x-----x--x-----x--x------| 
C||--0-0-0-0-x-x-8-8-8-8-x-x-10-10----10-10----10-10----10-10-----| 


D||---------------------------------------------------------------| 
A||--6-6-6-6-----8-8-8-8-----10-10-10-10-10-10-10-10-10-10-10-10--| 
F||--7-7-7-7-----9-9-9-9-----10-10-10-10-10-10-10-10-10-10-10-10--| 
C||--0-0-0-0-x-x-0-0-0-0-x-x-0--0--0--0--0--0--0--0--0--0--0--0---| 
G||--0-0-0-0-x-x-x-x-x-x-x-x-x--x--x--x--x--x--x--x--x--x--x--x---| 
C||--0-0-0-0-x-x-8-8-8-8-x-x-10-10-10-10-10-10-10-10-10-10-10-10--| 


D||---------------------------------------------------------------------| 
A||--6-6-6-6-----8-8-8-8-----10-10-10-10----10-10-10-10----10-10-10-10--| 
F||--7-7-7-7-----9-9-9-9-----10-10-10-10----10-10-10-10----10-10-10-10--| 
C||--0-0-0-0-x-x-0-0-0-0-x-x-0--0--0--0-----0--0--0--0-----0--0--0--0---| 
G||--0-0-0-0-x-x-x-x-x-x-x-x-x--x--x--x-----x--x--x--x-----x--x--x--x---| 
C||--0-0-0-0-x-x-8-8-8-8-x-x-10-10-10-10----10-10-10-10----10-10-10-10--| 


D||-----| 
A||--6--| 
F||--7--| 
C||--0--| 
G||--0--| 
C||--0--| 





************************************ 

| h   hammer-on 
| p   pull-off 
| b   bend 
| pb  pre-bend 
| r   release bend 
| ~   hold / vibrato 
| .   palm mute 
| /   slide up 
| \   slide down 
| *   pinch harmonic 
| '   natural harmonic 
| x   mute note 
| T   tap 

************************************ 

roll up this ad to continue

share this page

See Also: