E-Chords
Egotrippi

L Koskaan Ikin(Chords)

Egotrippi

roll up this ad to continue

Key: C#m
ÄLÄ KOSKAAN IKINÄ 

säv. Knipi & M. Kauste san. M. Kauste  
sov. Egotrippi & Lasse Kurki 

Tabut: Antti Iiskola [email protected] 
Soinnut: Essi Petäjäniemi [email protected] 

Uusin sinkku... Intron toinen puolikas, eli jälkimmäinen rivi soitetaan  
ekan kertosäkeen jälkeen. Myös lopussa jauhetaan introa. Soolon taustalle Knipi 
soittelee säkeistön sointuja, joskaan ei ihan yhtä staccatona kuin normaalisti. 

Säkeistön sointukuviohan on melkein reggaeta, eli jotain tähän tyyliin: 

      C#m   G#        A     E  
|  .  //  . /  |  .  //  .  /  | 

      A     E        D#7    G#   






Intro: 
------ 
   C#m     A7        C#m     A7    
e|-------------------------------| 
B|--9------8~--------9-------8~--| 
G|----9----------------9---------| 
D|------11------(11)------11-----| 
A|-------------------------------| 
E|-------------------------------| 
  
   C#m    A7      C#m     A7 
e|----------------------------------------| 
B|-9------8~------9-----------------------| 
G|---9--------------9-----11b12-b12r11-9--| 
D|-----11-----11------11------------------| 
A|----------------------------------------| 
E|----------------------------------------| 



Knipi Pre-Chorus (vain ekalla kerralla) 
----------- 
   A                                 G# 
e|----------0-----0-----0-----0---------| 
B|-----4b5----4b5---4b5---4b5---4b5-----| 
G|--------------------------------------| 
D|--------------------------------------| 
A|--------------------------------------| 
E|--------------------------------------| 


Skele soolo: 
------ 

   C#m         G#           A       E         
e|-------------------------------------------| 
B|-------------------------------------------| 
G|-8b9-b9-b9-b9-b9--8b9-9r8-6-9-6------------| 
D|--------------------------------9-9~-9/11--| 
A|-------------------------------------------| 
E|-------------------------------------------| 
   A        E              D#7      G# 
e|---------------------------------------------| 
B|----------------12-----------------9~-9-9-9/-| 
G|----9--11-11b13---13r11-9-11-9-11------------| 
D|-11------------------------------------------| 
A|---------------------------------------------| 
E|---------------------------------------------| 

   C#m               G#                 A                E 
e|--------------------------------------17----16-------15-------16--17~-| 
B|/14-14-14-13-13----13-14-14-17----------------------------------------| 
G|----------------13--------------16-18----16----16-15----15-17---------| 
D|----------------------------------------------------------------------| 
A|----------------------------------------------------------------------| 
E|----------------------------------------------------------------------|
Älä Koskaan Ikinä ----------------- säv. Knipi & M. Kauste san. M. Kauste sov. Egotrippi & Lasse Kurki Hei älä koskaan ikinä muutu pysy aina tuollaisena kuin nyt oot Intro: C#m D#7 |C#m A |C#m D#7 |C#m A || 2X C#m G#7 A E Sä menit sijoiltasi onnesta A E D#7 G#7 vaikka vannoit ettet, sä vannoit ettet C#m G#7 A E Se veisi kuitenkin vain terveyden A E D#7 G#7 ja aivan liian aikaisin hautaan A Nyt kun kuitenkin, kuitenkin kävi näin A Nyt kun kuitenkin kävi näin C#m D#7 G#7 C#m Hei älä koskaan ikinä muutu C#m D#7 G#7 C#m G#7 pysy aina tuollaisena kuin nyt oot C#m D#7 G#7 C#m Hei älä koskaan ikinä muutu A E D#7 G#7 C#m D#7 C#m A C#m D#7 C#m A kun täällä on jo liikaa sellaisia jotka tekevät niin C#m G#7 A E Kun menit sijoiltasi onnesta A E D#7 G#7 sinä kerroit, että se tuntui siltä C#m G#7 A E kuin kaikki nivelet ois naksahtaneet A E D#7 G#7 aina leukaa myöten pois paikoiltaan A Nyt kun kerran kävi näin C#m D#7 G#7 C#m Hei älä koskaan ikinä muutu C#m D#7 G#7 C#m G#7 pysy aina tuollaisena kuin nyt oot C#m D#7 G#7 C#m Hei älä koskaan ikinä muutu A E kun täällä on jo liikaa A E kun täällä on jo liikaa A E D#7 G#7 C#m G#7 kun täällä on jo liikaa sellaisia jotka tekevät niin soolo: A | E | A | E | D#7 | G#7 | C#m | G#7 | A | E | A | E | D#7 | G#7 | A Hei älä koskaan ikinä muutu pysy aina tuollaisena kuin nyt oot C#m A E D#7 G#7 Hei älä koskaan ikinä muutu C#m D#7 G#7 C#m Siis älä koskaan ikinä muutu C#m D#7 G#7 C#m G#7 pysy aina tuollaisena kuin nyt oot C#m D#7 G#7 C#m Hei älä koskaan ikinä muutu A E kun täällä on jo liikaa A E kun täällä on jo liikaa A E D#7 G#7 C#m D#7 C#m A C#m D#7 C#m A kun täällä on jo liikaa sellaisia jotka tekevät niin
share this page

See Also: