E-Chords
Edward Sharpe And The Magnetic Zeros

roll up this ad to continue

Watch the video lesson
Key: Bm
Intro 2x: Bm D G 

    Bm                  D                                    G 
E|-------------------|-------------------------------------|------------------------| 
B|-------------------|-------------------------------------|------------------------| 
G|-------------------|--------------------------------2----|------------------------| 
D|-----0---0---0---0-|-----7---7---7---7----4---4---4---4--|------------------------| 
A|---2---2---2---2---|---5---5---5---5----5---5---5--------|----2---2---2---2-------| 
E|-------------------|-------------------------------------|--3---3---3---3---------| 
Bm Alabama, Arkansas, D I do love my ma and pa, G Not the way that I do love you. Bm Holy, Moley, me, oh my, D You're the apple of my eye, G Girl I've never loved one like you. Bm Man oh man you're my best friend, D I scream it to the nothingness, G There ain't nothing that I need. Bm Well, hot and heavy, pumpkin pie, D Chocolate candy, Jesus Christ, G Ain't nothing please me more than you.
Bm D Ahh Home. Let me come home G Home is wherever I'm with you. Bm D Ahh Home. Let me go ho-oh-ome. G Home is wherever I'm with you.
Solo: 

E|---------------------------------------------------------------| 
B|---------------------------------------------------------------| 
G|---12--11--9---------------------------------------------------| 
D|-------------9--12-12-12-11~-----------------------------------| 
A|---------------------------------------------------------------| 
E|---------------------------------------------------------------| 



E|---------------------------------------------------------------| 
B|---------------------------------------------------------------| 
G|---12--11--9---------------------------------------------------| 
D|-------------9-12-12-14-11--------------12-12-14-11--12--------| 
A|-----------------------------12~--10---------------------------| 
E|---------------------------------------------------------------| 



E|---------------------------------------------------------------| 
B|---------------------------------------------------------------| 
G|--12-----------------------------------------------------------| 
D|-----12---11---------------------------------------------------| 
A|-------------12---14--12--10-9-10~-----------------------------| 
E|---------------------------------------------------------------| 

   La, la, la, la, take me home. 

E|---------------------------------------------------------------| 
B|---------------------------------------------------------------| 
G|---12-11-----12-11---------------------------------------------| 
D|---------12--------12------------------------------------------| 
A|---------------------------------------------------------------| 
E|---------------------------------------------------------------| 

   Mother, I'm coming home. 

E|---------------------------------------------------------------| 
B|---------------------------------------------------------------| 
G|---------------------------------------------------------------| 
D|---------------------------------------------------------------| 
A|----0-2-4------------------------------------------------------| 
E|---------------------------------------------------------------| 
Intro 2x: Bm D G Bm D G E|-------------------|-------------------------------------|------------------------| B|-------------------|-------------------------------------|------------------------| G|-------------------|--------------------------------2----|------------------------| D|-----0---0---0---0-|-----7---7---7---7----4---4---4---4--|------------------------| A|---2---2---2---2---|---5---5---5---5----5---5---5--------|----2---2---2---2-------| E|-------------------|-------------------------------------|--3---3---3---3---------| Bm I'll follow you into the park, D Through the jungle through the dark, G Girl I never loved one like you. Bm Moats and boats and waterfalls, D Alley-ways and pay phone calls, G I've been everywhere with you. Bm We laugh until we think we'll die, D Barefoot on a summer night G Nothin' new is sweeter than with you Bm And in the streets you run afree, D Like it's only you and me, G Geeze, you're something to see. Refrão: Bm D Ahh Home. Let me come home G Home is wherever I'm with you. Bm D Ahh Home. Let me go ho-oh-ome. G Home is wherever I'm with you.
Solo: 

E|---------------------------------------------------------------| 
B|---------------------------------------------------------------| 
G|---12--11--9---------------------------------------------------| 
D|-------------9--12-12-12-11~-----------------------------------| 
A|---------------------------------------------------------------| 
E|---------------------------------------------------------------| 



E|---------------------------------------------------------------| 
B|---------------------------------------------------------------| 
G|---12--11--9---------------------------------------------------| 
D|-------------9-12-12-14-11--------------12-12-14-11--12--------| 
A|-----------------------------12~--10---------------------------| 
E|---------------------------------------------------------------| 



E|---------------------------------------------------------------| 
B|---------------------------------------------------------------| 
G|--12-----------------------------------------------------------| 
D|-----12---11---------------------------------------------------| 
A|-------------12---14--12--10-9-10~-----------------------------| 
E|---------------------------------------------------------------| 

   La, la, la, la, take me home. 

E|---------------------------------------------------------------| 
B|---------------------------------------------------------------| 
G|---12-11-----12-11---------------------------------------------| 
D|---------12--------12------------------------------------------| 
A|---------------------------------------------------------------| 
E|---------------------------------------------------------------| 

    
   Daddy, I'm coming home. 



E|---------------------------------------------------------------| 
B|---------------------------------------------------------------| 
G|---------------------------------------------------------------| 
D|---------------------------------------------------------------| 
A|----0-2-4------------------------------------------------------| 
E|---------------------------------------------------------------| 
Him: Jade Her: Alexander Him: Do you remember that day you fell outta my window? Her: I sure do, you came jumping out after me. Him: Well, you fell on the concrete, nearly broke your ass, you were bleeding all over the place and I rushed you out to the hospital, you remember that? Her: Yes I do. Him: Well there's something I never told you about that night. Her: What didn't you tell me? Him: While you were sitting in the backseat smoking a cigarette you thought was gonna be your last, I was falling deep, deeply in love with you, and I never told you til just now. Refrão: Bm D Ahh Home. Let me come home G Home is wherever I'm with you. Bm D Ahh Home. Let me go ho-oh-ome. G Home is wherever I'm with you. Bm D Home. Let me come home. G Home is wherever I'm with you. Bm D Ahh home. Yes I am ho-oh-ome. G Home is when I'm alone with you. Bm Alabama, Arkansas, D G I do love my ma and pa... Bm Moats and boats and waterfalls, D G Alley-ways and pay phone calls..
share this page

See Also: