E-Chords
Edu Ribeiro & Cativeiro

E De Mais Ninguém(Chords)

Edu Ribeiro & Cativeiro

roll up this ad to continue

Key: D7+
  D7+                    G7+  
  SE VOCÊ QUISER ME ENSINAR  
  D7+                      G7+  
  COMO É QUE SE FAZ PRA TE AMAR  
  D7+                    G7+  
  HOJE EU TE GARANTO MEU BEM  
  D7+              G7+  
  QUE EU SEREI SO SEU  

 Solo junto com essa parte  

 D#|-------------------------------------------  
 A#|-8/9--9/11--9/8--9/11--------8/9--9/11--9/8 
 F#|------------------------------------------- 4X  
 C#|------------------------------------------- 
 G#|-------------------------------------------  
 D#|-------------------------------------------
D7+ G7+ e De MAIS NINGUÉM {4X} D7+ G7+ FOI COM VOCE QUE EU VI D7+ G7+ TODO AQUELE LINDO SOL SE POR D7+ G7+ FOI COM VOCE QUE EU QUIZ D7+ G7+ VER O BRLLHO CERTO DO AMOR D7+ G7+ SE VOCÊ QUISER ME ENSINAR D7+ G7+ COMO É QUE SE FAZ PRA TE AMAR D7+ G7+ HOJE EU TE GARANTO MEU BEM D7+ G7+ QUE EU SEREI SO SEU D7+ G7+ e De MAIS NINGUÉM {4X}
   
 D#|-------------------------------------------  
 A#|-8/9--9/11--9/8--9/11--------8/9--9/11--9/8  
 F#|-------------------------------------------  4X  
 C#|------------------------------------------- 
 G#|-------------------------------------------  
 D#|-------------------------------------------   
 
D7+ G7+ O MEU CORAÇÃO JA É SEU D7+ G7+ FAÇO TUDO POR UM BEIJO TEU D7+ G7+ NOITES EM CLARO EU PASSEI D7+ G7+ PENSANDO EM UM MOMENTO PRA DIZER D7+ G7+ QUE SE VOCÊ QUISER ME ENSINAR D7+ G7+ COMO É QUE SE FAZ PRA TE AMAR D7+ G7+ HOJE EU TE GARANTO MEU BEM D7+ G7+ QUE EU SEREI SO SEU D7+ G7+ e De MAIS NINGUÉM {4X} {SOLINHO}===> D7+ G7+ {4X} D7+ G7+ MAS SE VC QUISER ME ENSINAR D7+ G7+ COMO É QUE SE FAZ PRA TE AMAR D7+ G7+ HOJE EU TE GARANTO MEU BEM D7+ G7+ QUE EU SEREI SO SEU D7+ G7+ e De MAIS NINGUÉM {4X}
  
 D#|-------------------------------------------  
 A#|-8/9--9/11--9/8--9/11--------8/9--9/11--9/8  
 F#|-------------------------------------------  4X  
 C#|-------------------------------------------  
 G#|-------------------------------------------  
 D#|-------------------------------------------  
  

OBS: G7+  = 
 D#|---------------------------------------------x 
 A#|---3----------------------------------------o 
 F#|---4----------------------------------------o 
 C#|---4----------------------------------------o 
 G#|---------------------------------------------x 
 D#|---3----------------------------------------o
share this page

See Also: