E-Chords
Edu Gueda

Nossa Vibe(Chords)

Edu Gueda

roll up this ad to continue

Key: F
Intro: F/C C G Am 

       F/C          C9            G           Am 
E|----------x----------0--x-----------x-----------------| 
B|-------1--x--------3----x--------0--x-------1-1p0-----| 
G|-----2----x-------------x------0----x-----2-----------| 
D|---3------x-------------x-----------x-----------------| 
A|----------x---3---------x-----------x---0-------------| 
E|----------x-------------x---3-------x-----------------| 

Parte 1: 

       F/C          C9            G           Am 
E|----------x----------0--x-----------x-----------------| 
B|-------1--x--------3----x--------0--x-------1-1p0-----| 
G|-----2----x-------------x------0----x-----2-----------| 
D|---3------x-------------x-----------x-----------------| 
A|----------x---3---------x-----------x---0-------------| 
E|----------x-------------x---3-------x-----------------| 
(segue executando intro na parte 1) Parte 1: F/C C G Am Seu celular mau tocou você já disse oi alô F/C C G Am Pela velocidade que você atendeu eu já tô aqui Parte 2: F/C C G Com o estômago gelado coração disparado saindo Am F/C C G Pela boca que não consegue mais filtrar o que quer falar Pré-refrão: F/C C Você já teve a chance de me dizer na boa G Am F/C Não vai rolar comigo procure outra pessoa mais C G Am F/C C Você não falou o que isso quer dizer hein G iêêêêê
Dm Nosso beijo foi bom né F/C Coração disparou é C E a pergunta que não quer calar G Quando é que a gente vai se namorar Dm Nossa vibe rolou né F/C A gente combinou é C G Dm E a pergunta que não quer calar quando é que a gente vai se namorar
Parte 1: F/C C G Am Seu celular mau tocou você já disse oi alô F/C C G Am Pela velocidade que você atendeu eu já tô aqui Parte 2: F/C C G Com o estômago gelado coração disparado saindo Am F7M/C C G Pela boca que não consegue mais filtrar o que quer falar Pré-refrão: F/C C Você já teve a chance de me dizer na boa G Am F/C Não vai rolar comigo procure outra pessoa mais C G Am F/C C Você não falou o que isso quer dizer hein G iêêêêê
Dm Nosso beijo foi bom né F/C Coração disparou é C E a pergunta que não quer calar G Quando é que a gente vai se namorar Dm Nossa vibe rolou né F/C A gente combinou é C G E a pergunta que não quer calar quando é que a gente vaaaai Dm Nossa vibe rolou é F/C A gente combinoooo C G Dm F/C E a pegunta que não quer calar quando é que gente vai se namorar... namorar C G Dm E a pegunta que não que calar quando é que gente vai se namorar
share this page

See Also: