E-Chords
Edu Gueda

Dói Demais(Chords)

Edu Gueda

roll up this ad to continue

Key: Bm
Intro: Bm D A E 

(1ª parte) 


E|----------------------------| 
B|----------------------------| 
G|--4-4-4-4-4-4-6-4/2-----2-4-| 
D|--4--------------- -4-4-----| 
A|----------------------------| 
E|----------------------------| 


(2ª parte) 


E|----------------------------------| 
B|----------------------------------| 
G|--4-4-4-4-4-6-4/2----2-4/6-6--2-6-| 
D|------------------4-4-------------| 
A|----------------------------------| 
E|----------------------------------| 


(3ª parte) 


E|---------------------------------| 
B|---------------------------------| 
G|--6-6-6-6-6-6 7-6p4-2--2h4-4-4-4-| 
D|---------------------------2-2-2-| 
A|---------------------------------| 
E|---------------------------------|
A E Seu eu pudesse apenas perceber Bm D O que a vida planejava pra nos dois A E Não perderia o tempo que desperdicei Bm D Deixaria todo o resto pra depois Bm D A E agora, quanto demora pra essa hora E Bm Que vai olhar pra mim lembrando nada D A E E a nossa história nunca existiu. se foi
Bm Dói demais, seu olhar não se lembrar de mim D Dói demais, tudo desaparecer assim A Dói demais, esquecer assim tudo que viu E e tudo que ouvi e que amou Bm Dói demais, ver aos pouco te faltar a voz D Dói demais, te olhar e perceber que dói A Sabe o que Vou tentar guardar por você E Bm quem eu sou, pra viver
Solo:Bm D A E Bm D A E agora, quanto demora pra essa hora E Bm Que vai olhar pra mim lembrando nada D A E E a nossa história nunca existiu, se foi
Bm Dói demais, seu olhar não se lembrar de mim D Dói demais, tudo desaparecer assim A Dói demais, esquecer assim tudo que viu E e tudo que ouvi e que amou Bm Dói demais, ver aos pouco te faltar a voz D Dói demais, te olhar e perceber que dói A Sabe o que Vou tentar guardar por você E Bm D A E quem eu sou, pra viver Bm pra viver
share this page

See Also: