E-Chords
Eber Cabral

O Cara Errado(Chords)

Eber Cabral

roll up this ad to continue

Key: C
Intro: C  F  C  G  C  G 

Parte 1: 

 
E|--------------------------------------------------------------------------| 
B|--------------------------------------------------------------------------| 
G|--------------------------------------------------------------------------| 
D|--------------------------------------------------------------------------| 
A|-14h15-15-15-15-17-17/19-19p17-15-----------------------------------------| 
E|----------------------------------13-15-15/17-----------------------------| 
 

Parte 2: 

 
E|---------------------------------------------------------------------------------------| 
B|---------------------------------------------------------------------------------------| 
G|---------------------------------------------------------------------------------------| 
D|---------------------------------------------------------------------------------------| 
A|-------15-15-15-15-17-17/19-17h19-19p17-15-15h17----------------------------------15---| 
E|-15h17-------------------------------------------17h19 19p17-15-10h12-10h12-12p10------| 
 
C Quando você foi embora G Eu disse pra você F Que esse cara só vai te fazer sofrer Deixe de bobagem C G E escute o que eu digo C O amor que eu te dei G Ele não vai te dar F Aposto que um dia você vai voltar G7 C E vai pedir arrego pra ficar comigo G F Na hora que quebrar a cara vai me dar razão C E descobrir que ele é só ilusão G Porque nem faz amor como você queria F E ai você vai ver que dorme com o cara errado C que te deixa na mão depois de ter transado G7 C Ai nem realiza suas fantasias C Quando você foi embora G Eu disse pra você F Que esse cara só vai te fazer sofrer Deixe de bobagem C G E escute o que eu digo C O amor que eu te dei G Ele não vai te dar F Aposto que um dia você vai voltar G7 C E vai pedir arrego pra ficar comigo G F Na hora que quebrar a cara vai me dar razão C E descobrir que ele é só ilusão G Porque nem faz amor como você queria F E ai voce vai ver que dormi com o cara errado C E te deixar na mão depois de ter transado G7 C Ai nem realiza as suas fantasias G Quando você foi embora F Eu disse pra você C Que esse cara só vai te fazer sofrer G Deixe de bobagem C G E escute o que eu digo C O amor que eu te dei G Ele não vai te dar F Aposto que um dia você vai voltar G7 C E vai pedir arrego pra ficar comigo G F Na hora que quebrar a cara vai me dar razão C E descobrir que ele é só ilusão G Porque não fez amor como você queria F E ai você vai ver quem dorme com o cara errado C E te deixa na mão depois de ter transado G7 C Ai nem realiza suas fantasias
share this page

See Also: