E-Chords
Dustin Tebbutt

Honest Hands(Chords)

Dustin Tebbutt

roll up this ad to continue

Key: G
Capo on 2nd fret
 


  Em               G                C                C 
|---3-------3--------3-------3--------0-------0--------0-------0--3-0-----| 
|---0--0----0--0-----0--0----0--0-----1--1----1--1-----1--1----1------1---| 
|-------0-------0--------0-------0--------0-------0--------0------------0-| 
|-2-------2--------0-------0--------2-------2--------2-------2------------| 
|-----------------------------------3-------3--------3-------3------------| 
|-------------------------------------------------------------------------| 
Em G C C Honest hands don?t quiver Em G C C Open arms won?t hinder Em G C C But my heart knows neither Em G C C My mind release her 1st Guitar Em G C C Em G C G6
2nd Guitar (No capo) 
|---9--------------------------------9-------------------------------9--9--9-| 
|--7--7-----10-------9-9------7--------7-----10-------9-9------7-7-----7--7--| 
|----------------------------------------------------------------------------| 
|-7-----7/11-----11/9-9---9/7------7-----7/11-----11/9-9----9/7-7------------| 
|----------------------------------------------------------------------------| 
|----------------------------------------------------------------------------| 
Em G C C The wild heart beats still Em G C C The taper glows on a sill Em G C C No silent vows will last requite Em G C C In my mind now, I?m making right 1st Guitar Em G C C Em G C C
2nd Guitar (No capo) 
|---9---------------------------------------------------------| 
|-----7-----10-------9-9------7-7-------10-------9-9------7-7-| 
|-------------------------------------------------------------| 
|-7-----7/11-----11/9-9----9/7-7----7/11-----11/9-9----9/7-7--| 
|-------------------------------------------------------------| 
|-------------------------------------------------------------| 

        Em      G     C         G6    Em       G     C       C      Em 
|---9-----------------------------------------------------------9----------| 
|-----7-----10---9-9-----7-7--5-7-5-----10------9-9-----7-7-------7-----10-| 
|--------------------------------------------------------------------------| 
|-7-----7/11----9-9---9/7-7---------7/11----11/9-9---9/7-7----7-----7/11---| 
|--------------------------------------------------------------------------| 
|--------------------------------------------------------------------------|
share this page

See Also: