E-Chords
Dune Rats

When You're Around(Chords)

Dune Rats

roll up this ad to continue

Key: E
Really fun and simple song to play. Dunies rule. 
Bass part: 
G|---------------------------------| 
D|---------------------9s11s9s11---| 
A|-7-7-7----7---7-7-7--------------| 
E|0------0----0--------------------| 
Not too sure about the E notes, just play whatever feel right. 


Riff: 
e|14-14-14-12-12------------------------------------------------| 
B|---------------14-14-14-12-12-12-12-12-12-12------------------| 
G|---------------------------------------------13-13-13-13-13-13| 
D|--------------------------------------------------------------| 
A|--------------------------------------------------------------| 
E|--------------------------------------------------------------| 
E When you're around you're around, you're around, you're around When you're around you're around, you're around, you're around When you're around you're around, you're around, you're around When you're around you're around, you're around, you're around A E And all I wanna do, and all you wanna do is waste the time away E It's up and down up and down, up and down, up and down It's up and down up and down, up and down, up and down It's up and down up and down, up and down, up and down It's up and down up and down, up and down, up and down A E And all I wanna do, and all you wanna do is waste the time away A E And all I wanna do, and all you wanna do is waste the time away Riff is played here E When you're around you're around, you're around, you're around It's up and down up and down, up and down, up and down A When you're around you're around, you're around, you're around E It's up and down up and down, up and down, up and down A E And all I wanna do, and all you wanna do, is waste the time away A E And all I wanna do, and all you wanna do, is waste the time away Outro: A, E Then play riff and end on the last note.
share this page

See Also: