E-Chords
Do As Infinity

Keshin No Kemono(Chords)

Do As Infinity

roll up this ad to continue

Key: Em
Intro: ( Em7  C7M  A7sus4  C7M ) 

E|------------------| 
B|------------------| 
G|------7-11-7-9----| 
D|-----9-9----------| 
A|----7-------------| 
E|------------------|
Em7 Migi tonari no yaiba o nadeteru C7M A7sus4 Aare wa nanimono ka nanimono darou ka Em7 Hidari ni misueta mirai ni ima C7M A7sus4 Kakugo shite idomu ibaramichi to te Onore no ikizama sa Em7 C7M A7sus4 B7sus4 Jaki agaki no hate omae ga miseta gyousou Em7 C7M A7sus4 B7sus4 Chiri sai no tawagoto saigo ni ichigeki kurawaseru C7M D Em7 G Ware, ima abaita kono yokotawaru ratai wa C7M D Em7 Motomeaegu dake no tada no bakemono datta Em7 Saisan uragiri ai ni somuki C7M A7sus4 Manzokuge na emi hin mo arya shinai Em7 Utsutsu o nukashita sono daishou C7M A7sus4 Ukiyo no saihate kodoku na matsuei Omae no ikizama sa Em7 C7M A7sus4 B7sus4 Bake no kawahagi ga shi omae ga sarashita honshou Em7 C7M A7sus4 B7sus4 Hoda sareta mi wa tada iku ate mo naku samayou C7M D Em7 G Ware, ima abaita kono yokotawaru ratai wa C7M D Em7 Kiba o kakushiteita tada no bakemono datta Em7 G Aa, kono yo wa A7sus4 C7M Aa, yoku bakari
Solo 
E|--------------|-----------------------------| 
B|---------15/--|-11-10-8-7-10-8-7-5-8--------| 
G|--------------|-----------------------------| 
D|--------------|-----------------------------| 
A|--------------|-----------------------------| 
E|--------------|-----------------------------| 

E|---------7------------------7---------------7-----------| 
B|-8-10-11----11-10---8-10-11---11-10-8-10-11---11-10-----| 
G|--------------------------------------------------------| 
D|--------------------------------------------------------| 
A|--------------------------------------------------------| 
E|--------------------------------------------------------|

E|---------7---------------7-10-12-17---12-12-15----12----| 
B|-8-10-11---11-10-8-10-11-----------------------15----12-15--12-| 
G|----------------------------------------------------------14--12| 
D|----------------------------------------------------------------| 
A|----------------------------------------------------------------| 
E|---------------------------------------------------------------| 

E|-------------------| 
B|-12---10---8-------| 
G|---12----9---7/----| 
D|-------------------| 
A|-------------------| 
E|-------------------| 
Em7 C7M A7sus4 B7sus4 Bake no kawahagi ga shi omae ga sarashita honshou Em7 C7M A7sus4 B7sus4 Hoda sareta mi wa tada iku ate mo naku samayou C7M D Em7 G Ware, ima abaita kono yokotawaru ratai wa C7M D Em7 Kiba o kakushiteita tada no bakemono datta Em7 G Aa, kono yo wa A7sus4 C7M Aa, yoku bakariD
share this page

See Also: